Song name
# A B C D E F G H I J K L M N O P Q R S T U V W X Y Z

Burn The Priest - Bloodletting tab

-------------------------------------------------------------------------------
			     Bloodletting - Burn The Priest
-------------------------------------------------------------------------------
Tabbed by: Steven Reynolds (nanna_guy414)
Email: ultimate_jetfighter_extreme@hotmail.com

Tuning:Drop D (I dont think this song is played in drop d as the other tab suggests. Im
sure most, if not all of their early recordings are in drop d)


                           **NOTES**

First tab so im not too sure on the accuracy (thats for you guys to figure out) Its
basicly how i learnt to play the song by listening to the recording many times and from
wathcing the live video. The first riff ill put down as tremolo picking. All the riffs 
are there, just listen to the song and figure out how many times to play them and where 
in the
song they are played.

e|---------------------------------------------------------------------------|
B|---------------------------------------------------------------------------|
G|---------------------------------------------------------------------------|
D|---------------------------------------------------------------------------|
A|--//-----//----//--//-//---------------------------------------------------|
D|-66-----55-----33--00-33-------(x2)----------------------------------------|

e|---------------------------------------------------------------------------|
B|---------------------------------------------------------------------------|
G|---------------------------------------------------------------------------|
D|---------------------------------------------------------------------------|
A|5----6-----------------------5---------------------------------------------|
D|5-00-6-00-3-5-565-3-5-6-5-3------------------------------------------------|

e|---------------------------------------------------------------------------|
B|---------------------------------------------------------------------------|
G|---------------------------------------------------------------------------|
D|---------------------------------------------------------------------------|
A|-3----5---6---5----------------------------------------------------------- |
D|-3-00-5-0-6-0-5--4-3-2-3-2-1-2---------------------------------------------|

e|---------------------------------------------------------------------------|
B|---------------------------------------------------------------------------|
G|---------------------------------------------------------------------------|
D|---------------------------------------------------------------------------|
A|---------------------------------------------------------------------------|
D|-000-0-0-0-0---0-000-000--0-0-000-0-0-0-0--0-000-000-0-0-------------------|

e|---------------------------------------------------------------------------|
B|---------------------------------------------------------------------------|
G|---------------------------------------------------------------------------|
D|------p--------------------------------------------------------------------|
A|-----87----1---------------------------------------------------------------|
D|-0------00-1---0-0-000-0-0-000---------------------------------------------|

e|---------------------------------------------------------------------------|
B|---------------------------------------------------------------------------|
G|---------------------------------------------------------------------------|
D|---------------------------------------------------------------------------|
A|2---------------2-------7-5-4----------------------------------------------|
D|--3-2-3-5-3-2-3---3-2----------5-4------00000000000000000000-----REPEAT----|


************************************

| /   slide up
| \   slide down
| h   hammer-on
| p   pull-off
| ~   vibrato
| +   harmonic
| x   Mute note
| b   Bend
| pb  Pre-bend
| br  Bend release
| pbr Pre-bend release
| brb Bend release bend
| //  Tremolo Picking

************************************
Tap to rate this tab
# A B C D E F G H I J K L M N O P Q R S T U V W X Y Z