Song name
# A B C D E F G H I J K L M N O P Q R S T U V W X Y Z

Burn The Priest - Lies Of Autumn tab

----------------------------------------------------------------------------
			     Lies of Autumn - Burn The Priest
----------------------------------------------------------------------------
Tabbed by:CrosseGod18
Email:crossegod@yahoo.com

Tuning:DADGBE

e|------|    |--------------------------------------|
B|------|    |--------------------------------------|
G|------|    |--------------------------------------|
D|------|    |--------------------------------------|x6 The 6th time play
A|--0-0-|    |6/5--0--6/5-3--3\5-3--0--6/5---000-0--|   the last note open
D|--0-0-|    |6/5--0--6/5-3--3\5-3--0--6/5---000-0--|
    * *            *                *        *** *


e|-------------------------------------------------------------------------|
B|-------------------------------------------------------------------------|
G|-------------------------------------------------------------------------|
D|-------------------------------------------------------------------------|
A|------3~------3------7~--0-------3~-------3-----0-------3~-----3~-5-8-4-7|
D|--5-6-----5-6----5-6-----0---5-6------5-6---5---0---5-6----5-6-----------|
                           x            * * * *   x   * *    * *


e|-----------------|  |-----------|
B|-----------------|  |-----------|
G|-----------------|  |-----------|
D|-----------------|  |-----------|x18
A|----------5-6-3--|  |--1-0-2-0--|
D|--5-6-3---5-6-3--|  |--1-0-2-0--|
    x x x   * *          * * * *


e|------|    |--------------------------------------|
B|------|    |--------------------------------------|
G|------|    |--------------------------------------|
D|------|    |--------------------------------------|x6
A|--0-0-|    |6/5--0--6/5-3--3\5-3--0--6/5---000-0--|
D|--0-0-|    |6/5--0--6/5-3--3\5-3--0--6/5---000-0--|
    * *            *                *        *** *

e|-----------------------------------------|
B|-----------------------------------------|
G|-----------------------------------------|
D|-----------------------------------------|
A|-----------------------------------6-5-4-|
D|--5p3-0-4p3--5p3-0-4p3--5p3-0-4p3--6-5-4-|
        *          *          *


e|-------------------------------|
B|-------------------------------|
G|-------------------------------|
D|-------------------------------|x8
A|-6-0-5-0-6-0-5-0-6-0-5-0-55-6--|
D|-6-0-5-0-6-0-5-0-6-0-5-0-55-6--|
     *   *   *   *   *   *


e|----------------|
B|----------------|
G|----------------|
D|----------------|x5
A|----------------|
D|---000545-000654|

e|-----------|
B|-----------|
G|-----------|
D|-----------|
A|--2-1-2-0--|
D|--2-1-2-0--|
    * * * *
end on machine gunning along with the double kicks on palm muted open D string. Hope you 
it. Please rate!!! leave comments or suggestions, this is not my first tab but it was 
so be gentle.


| /  slide up
| \  slide down
| h  hammer-on
| p  pull-off
| ~  vibrato
| +  harmonic
| *  Normal Palm Mute
| x  Light Palm Mute
============================================================================
Tap to rate this tab
# A B C D E F G H I J K L M N O P Q R S T U V W X Y Z