Burning Brides - Heart Full Of Black tab

----------------------------------------------------------------------------
	           Heart Full of Black - Burning Brides
----------------------------------------------------------------------------

Tabbed by: Matt Steele
Email: myotherhappyplace@yahoo.com

Tuning:Standard

1st solo
right after 2nd verse
e|-------------------------------------------------------------------------|
B|-------------------------------------------------------------------------|
G|------------------------------------------14h18)----12h16)----10h14)-----|
D|---7h11)----10h14)----12h16)---15h19)--14)-------12)-------10)-----------|
A|-7)------10)-------12)------15)------------------------------------------|
E|-------------------------------------------------------------------------|

e|-------------------------------------------------------------------------|
B|-------------------------------------------------------------------------|
G|---5h9)------------------------------------------------------------------|
D|-5)----------------------------------------------------------------------|
A|-------------------------------------------------------------------------|
E|-------------------------------------------------------------------------|

2nd solo
e|-------------------------------------------------------------------------|
B|------------------------------14~----------------------------------------|
G|-6~-4p2---2-----------------------------------------14~------------------|
D|--------4---4-2-4p2---2-----------16-16p14----14-16-----16-16p14----14-16|
A|--------------------4---4-3-2~-------------16--------------------16------|
E|-------------------------------------------------------------------------|

e|-------------------------------------------------------------------------|
B|-17b^--------------------------------------------------------------------|
G|------17-16-17-16-14-----------------------------------------------------|
D|---------------------16-15-14--------------------------------------------|
A|------------------------------16-15-14-12--------------------------------|
E|------------------------------------------14~\---------------------------|

************************************

| )   Hold down
| /   slide up
| \   slide down
| h   hammer-on
| p   pull-off
| ~   vibrato
| +   harmonic
| x   Mute note
| b   Bend
| pb  Pre-bend
| br  Bend release
| pbr Pre-bend release
| brb Bend release bend

************************************
Tap to rate this tab
 
# A B C D E F G H I J K L M N O P Q R S T U V W X Y Z