Song name
# A B C D E F G H I J K L M N O P Q R S T U V W X Y Z

Burning Brides - Arctic Snow tab

every other tab i found for this has the intro wrong...this version sounds correct for me

Standard tuning
() mute

intro/verse
e[---------------------------------------------]
B[---------------------------------------------]
G[-----------10-10-10-(10)-5-5-5-(5)-----------]
D[-7-7-7-(7)-10-10-10-(10)-5-5-5-(5)-2-2-2-(2)-]
A[-7-7-7-(7)--8--8--8--(8)-3-3-3-(3)-2-2-2-(2)-]
E[-5-5-5-(5)-------------------------0-0-0-(0)-]

chorus
e[---------------------------------------------]
B[---------------------------------------------]
G[-7-------------------------------------------]
D[-7-------------------------------------------]
A[-5-------------------------------------------]
E[---------------------------------------------]

bridge
e[---------------------------------------------]
B[---------------------------------------------]
G[---------------------------------------------]
D[-7-7-----5-5-----3-3-----2-2-----------------]
A[-7--7-7--5--5-5--3--3-3--2--2-2--------------]
E[-5---5---3---3---1---1---0---0---------------]

any corrections can be sent to bherbstreit@hotmail.com
feedback is appreciated...solo in the process
Tap to rate this tab
# A B C D E F G H I J K L M N O P Q R S T U V W X Y Z