Song name
# A B C D E F G H I J K L M N O P Q R S T U V W X Y Z

Burning Bridges - Nothing Without You tab

THis tab was given to me buy the lead guitar player so i know it is right.
E/----------------------------------------------------------3-----|
B/----------3----------------3--------------3-----------------3---|
G/--------0---0------------0----0---------0---0-----------0-----0-|
D/------2-------2--------0--------0-----2-------2-------0---------|
A/----2-----------2----2--------------2-----------2---2-----------|
E/--0----------------3--------------0---------------3-------------|


E/---------------------------------------------|
B/----------3---------------3------------------|
G/--------0---0-----------0---0------0---0-----|
D/------2-------2-------0-------0---4-4-4-4----|
A/----2-----------2---2------------3---5-------|
E/--0---------------3-----------------------0--|

Repeat this here throughout the whole song and you have it made.  I you Look at this 
 Check out Burning Bridges Web Site at                     www.burningbridgesrock.com
Tap to rate this tab
 
# A B C D E F G H I J K L M N O P Q R S T U V W X Y Z