Song name
# A B C D E F G H I J K L M N O P Q R S T U V W X Y Z

Burning In Hell - Goddesses Of Fate Part Ii tab

-------------------------------------------------------------------------------
			     Goddesses Of Fate Part II - Burning In Hell
-------------------------------------------------------------------------------
Tabbed by: Randy Lott
Email: venominox@rock.com

Tuning: DADGBE, both guitars in dropped D tuning

Guitar 1 (Panned Hard Left):

     PM PM PM                PM PM PM                PM PM PM              
     E  E  E  H        E     E  E  E  H        E     E  E  E  H        E   
E||-----------------------|-----------------------|-----------------------|
B||-----------------------|-----------------------|-----------------------|
G||-----------------------|-----------------------|-----------------------|
D||-----------------------|-----------------------|-----------------------|
A||--0--0--0--------------|--0--0--0--------------|--0--0--0--------------|
D||--0--0--0--------------|--0--0--0--------------|--0--0--0--------------|


  PM PM PM                PM PM    PM    PM PM       PM    PM    PM            
  E  E  E  H        E     E  E  E  E  E  E  E  E     E  E  E  E  E  E  E   E   
-----------------------|--------------------------|---------------------------|
-----------------------|--------------------------|---------------------------|
-----------------------|--------5-----7--------8--|-----7-----5-----5--7h--8--|
-----------------------|--------------------------|---------------------------|
--0--0--0--------------|--1--1-----1-----1--1-----|--1-----1-----1------------|
--0--0--0--------------|--------------------------|---------------------------|


  PM PM    PM    PM PM       PM    PM    PM              PM PM PM              
  E  E  E  E  E  E  E  E     E  E  E  E  E  E  E   E     E  E  E  H        E   
--------------------------|---------------------------|-----------------------|
--------------------------|---------------------------|-----------------------|
--------5-----7--------8--|-----7-----5-----5--7h--8--|-----------------------|
--------------------------|---------------------------|-----------------------|
--1--1-----1-----1--1-----|--1-----1-----1------------|--0--0--0--------------|
--------------------------|---------------------------|--0--0--0--------------|


  PM PM PM                PM PM PM                PM PM PM              
  E  E  E  H        E     E  E  E  H        E     E  E  E  H        E   
-----------------------|-----------------------|-----------------------|
-----------------------|-----------------------|-----------------------|
-----------------------|-----------------------|-----------------------|
-----------------------|-----------------------|-----------------------|
--0--0--0--------------|--0--0--0--------------|--0--0--0--------------|
--0--0--0--------------|--0--0--0--------------|--0--0--0--------------|


  PM PM    PM    PM PM       PM    PM    PM            
  E  E  E  E  E  E  E  E     E  E  E  E  E  E  E   E   
--------------------------|---------------------------|
--------------------------|---------------------------|
--------5-----7--------8--|-----7-----5-----5--7h--8--|
--------------------------|---------------------------|
--1--1-----1-----1--1-----|--1-----1-----1------------|
--------------------------|---------------------------|


  PM PM    PM    PM PM       PM    PM    PM             
  E  E  E  E  E  E  E  E     E  E  E  E  E  E  E   E    
--------------------------|---------------------------||
--------------------------|---------------------------||
--------5-----7--------8--|-----7-----5-----5--7h--8--||
--------------------------|---------------------------||
--1--1-----1-----1--1-----|--1-----1-----1------------||
--------------------------|---------------------------||

Guitar 2 (Panned Hard Right):

     PM PM PM      PM                       PM         
     E  E  E  Q    E  E   E     Q.     Q    E  E   E   
E||--------------------------|------------------------|
B||--------------------------|------------------------|
G||--------------------------|------------------------|
D||-----------3-------2h--3--|--5------3-------2h--3--|
A||--------------------------|------------------------|
D||--0--0--0-------3---------|--------------3---------|


  PM PM PM      PM                       PM           ^                 
  E  E  E  Q    E  E   E     Q.     Q    E  E   E     W                 
--------------------------|------------------------|-------------------|
--------------------------|------------------------|-------------------|
--------------------------|------------------------|-------------------|
-----------3-------2h--3--|--5------3-------2h--3--|--3----------------|
--------------------------|------------------------|--1----------------|
--0--0--0-------3---------|--------------3---------|-------------------|


  W                   W                   W                 
-------------------|-------------------|-------------------|
-------------------|-------------------|-------------------|
-------------------|-------------------|-------------------|
--L----------------|--L----------------|--L----------------|
--L----------------|--L----------------|--L----------------|
-------------------|-------------------|-------------------|


  PM PM PM      PM                       PM           PM PM PM      PM         
  E  E  E  Q    E  E   E     Q.     Q    E  E   E     E  E  E  Q    E  E   E   
--------------------------|------------------------|--------------------------|
--------------------------|------------------------|--------------------------|
--------------------------|------------------------|--------------------------|
-----------3-------2h--3--|--5------3-------2h--3--|-----------3-------2h--3--|
--------------------------|------------------------|--------------------------|
--0--0--0-------3---------|--------------3---------|--0--0--0-------3---------|


              PM           ^                                     
  Q.     Q    E  E   E     W                   W                 
------------------------|-------------------|-------------------|
------------------------|-------------------|-------------------|
------------------------|-------------------|-------------------|
--5------3-------2h--3--|--3----------------|--L----------------|
------------------------|--1----------------|--L----------------|
--------------3---------|-------------------|-------------------|


  W                   W                  
-------------------|-------------------||
-------------------|-------------------||
-------------------|-------------------||
--L----------------|--L----------------||
--L----------------|--L----------------||
-------------------|-------------------||




Duration Legend
---------------
W - whole
H - half
Q - quarter
E - 8th
S - 16th
T - 32nd
X - 64th
. - note dotted
|-n-|  - n-tuplets


Tablature Legend
----------------
L - tied note
x - dead note
g - grace note
(n) - ghost note
> - accentuded note
NH - natural harmonic
AH - artificial harmonic
TH - tapped harmonic
SH - semi harmonic
PH - pitch harmonic
h - hammer on
p - pull off
b - bend
br - bendRelease
pb - preBend
pbr - preBendRelease
brb - bendReleaseBend
\n/ - tremolo bar dip
\n - tremolo bar dive
-/n - tremolo bar Release up
/n\ - tremolo bar inverted dip
/n - tremolo bar return
-\n - tremolo bar Release down
S - shift slide
s - legato slide
/ -  slide into from below or out of upwards
\ -  slide into from above or out of downwards
~ - vibrato
W - wide vibrato
tr - trill
TP - tremolo picking
T - tapping
S - slap
P - pop
< - fade in
^ - brush up
v - brush down


Burning In Hell's Website:  http://www.burninginhell.com.br/
Tap to rate this tab
 
# A B C D E F G H I J K L M N O P Q R S T U V W X Y Z