Song name
# A B C D E F G H I J K L M N O P Q R S T U V W X Y Z

Burning Symmetry - 2012 tab

http://www.myspace.com/burningsymmetry
-------------------------------------------------------------------------------
                             2012 - Burning Symmetry
-------------------------------------------------------------------------------
Tabbed by: Sokarril
E-mail: sokarril@hotmail.com

Tuning: Standard - EADGBe

e|--------------------------------------------------|
B|-------0------------0------------0----------------|
G|-----0---0--------0---0--------0---0--------0-----|
D|---2-------2----4-------4----5-------5----7---7---|
A|-3------------5------------7------------9---------|
E|--------------------------------------------------|


e|--------------------------------------------------|
B|--------------------------------------------------|
G|--------------------------------------------------|
D|----9----10---------------------------------------|
A|-10---12------------------------------------------|
E|--------------------------------------------------|

Enjoy!
Tap to rate this tab
 
# A B C D E F G H I J K L M N O P Q R S T U V W X Y Z