Song name
# A B C D E F G H I J K L M N O P Q R S T U V W X Y Z

Burning The Masses - Cinema tab

-------------------------------------------------------------------------------
			     Cinema - Burning the Masses
-------------------------------------------------------------------------------
Tabbed by: Jon Cole
Email: BatmJon@live.com

Tuning:Drop C (CGCFAD)

/   slide up
~   Vibrato
tr  Tremelo 


D|--/15~---------13-12-15---------------------------------------------------|
A|-------------------------13~----------------------------------------------|
F|-------------------------------10-9-12------------------------------------|
C|---------------------------------------10~--------------------------------|
G|---------------------------------------------8-7-10-----------------------|
C|-----------------------------------------------------10~-------- ---------|

D|--------------------------------------------------------------------------|
A|--------------------------------------------------------------------------|
F|--------------------------------------------------------------------------|
C|----2~-------------3~-------------5-5-5-5-5-5-5~--------------------------|
G|----2~-------------3~-------------3-3-3-3-3-3-3~--------------------------|
C|----2~-------------3~-----------------------------------------------------|
                                    
Tap to rate this tab
# A B C D E F G H I J K L M N O P Q R S T U V W X Y Z