Burning Witch - Warning Signs tab

A#  |----------------------------------------------------------------------------------------|
F#  |-------------------------------------------------------------0--------------------------|
C#  |-----------------------------------------------------------------0----------------------|
G#  |-0-------0-----------0-------0-----------0-------0-------------------0------------------|
D#  |-0---5~--0---4-------0---4---0---3b------0---5~--0---4-------------------3--5-3-5-3-5b--|
G#  |-0-------0-----------0-------0-----------0-------0--------------------------------------|


A#  |----------------------------------------------------------------------------------------|
F#  |-------------------------------------------------------------0--------------------------|
C#  |-----------------------------------------------------------------0----------------------|
G#  |-0-------0-----------0-------0-----------0-------0-------------------0---5-------5------|
D#  |-0---5~--0---4-------0---4---0---3b------0---5~--0---4-------------------3-------5------|
G#  |-0-------0-----------0-------0-----------0-------0-------------------------------5------|


A#  |-------------------------------------------------------------|
F#  |-------------------------------------------------------------|
C#  |-------------------------------------------------------------|
G#  |-2-----------2-----------6------2------5---------------2-----|
D#  |-0-----------0-----------4------0------3----5----------0-----|
G#  |--------------------------------------------5----------------|


A#  |-------------------------------------------------------------|
F#  |-------------------------------------------------------------|
C#  |-------------------------------------------------------------|
G#  |-2-----------2-----------6------2------5---------------------|
D#  |-0-----------0-----------4------0------3----5-------5--------|
G#  |--------------------------------------------5-------5--------|


A#  |-----------------------|
F#  |-----------------------|
C#  |-----------------------|
G#  |-1-------3---2---------|
D#  |-1-------3---2---------|
G#  |-1-------3---2---------|


A#  |-------------------------------------------------------------------------------------------|
F#  |-------------------------------------------------------------------------------------------|
C#  |--------------------------5----------------------------------------------------------------|
G#  |-7-----6------------------3---------------------------------6------------------------------|
D#  |-5-----4------------------3---------------------------------4------------------------------|
G#  |-------------------------------------------------------------------------------------------|


A#  ------------------------------------------------------------------------------------------|
F#  ------------------------------------------------------------------------------------------|
C#  ------------------------------------------------------------------------------------------|
G#  --5-----2------------------5-----4---------------1----------------------------------------|
D#  --3-----2------------------3-----2---------------1----------------------------------------|
G#  --------2----------------------------------------1----------------------------------------|


A#  |-----------0------------------------------------------------------------------------------|
F#  |-------------0----------------------------------0-------------------0---------------------|
C#  |---------------0----------------0-----------0-------------2-----------2-------------------|
G#  |-2--------------------------2-----------1-----------------2-------------2--------6----1---|
D#  |-0----------------------4-----------3---------------------0----------------------4----3---|
G#  |------------------------------------------------------------------------------------------|


A#  |------------------------------------------------------------------------------------------|
F#  |------------------------------------------------------------------------------------------|
C#  |------------------------------------------------------------------------------------------|
G#  |-2----------------------------------------------------------------------------------------|
D#  |-2----------------------------------------------------------------------------------------|
G#  |-2----------------------------------------------------------------------------------------|
Tap to rate this tab
 
# A B C D E F G H I J K L M N O P Q R S T U V W X Y Z