Song name
# A B C D E F G H I J K L M N O P Q R S T U V W X Y Z

Burning Witch - Stillborn tab

BURNING WITCH

"Stillborn"

A#  |------------------------------------------------------------------------------------------|
F#  |------------------------------------------------------------------------------------------|
C#  |------------------------------------------------------------------------------------------|
G#  |--2---------2-2-----3-----2-----5---6--6-----2---------2-2-----3-----2-----5---6--3-------|
D#  |--0---------0-0-----0-----0-----3---4--4-----0---------0-0-----0-----0-----3---4--1-------|
G#  |------------------------------------------------------------------------------------------|

A#  |------------------------------------------------------------------------------------------|
F#  |------------------------------------------------------------------------------------------|
C#  |------------------------------------------------------------------------------------------|
G#  |------------------------------------------------------------------------------------------|
D#  |------------------------3~-(6)\(5)---5~----5----------------------------------------------|
G#  |--0----------0-----------------------------------6------------6--6--------0-------0---6~--|

A#  ------------------------------------|
F#  ------------------------------------|
C#  ------------------------------------|
G#  ------------------------------------|
D#  ------------------------------------|
G#  --0----6--5-----------5b------------|

A#  |------------------------------------------------------------------------------------------|
F#  |------------------------------------------------------------------------------------------|
C#  |------------------------------------------------------------------------------------------|
G#  |--2---------2-2-----3-----2-----5---6--6-----2---------2-3-----2-----0-----5---6--3-------|
D#  |--0---------0-0-----0-----0-----3---4--4-----0---------0-0-----0-----0-----3---4--1-------|
G#  |------------------------------------------------------------------------------------------|

A#  |------------------------------------------------------------------------------------------|
F#  |------------------------------------------------------------------------------------------|
C#  |------------------------------------------------------------------------------------------|
G#  |--0----------0----------5------------------7-----6------------6--6--------0-------0---6---|
D#  |--0----------0----------3~-/6-\(5)---5~----5-----6------------6--6--------0-------0---6---|
G#  |--0----------0-----------------------------------6------------6--6--------0-------0---6~--|

A#  ----------------------------------|
F#  ----------------------------------|
C#  ----------------------------------|
G#  --0----6--5-----------------------|
D#  --0----6--5-----------------------|
G#  --0----6--5-----------5656565656--|

                          last time and going into interlude
A#                       ----------------------------------------------------------------------|
F#                       ----------------------------------------------------------------------|
C#                       ----------------------------------------------------------------------|
G#                       -1-----------0--------------------------------------------------------|
D#                       -1-----------0--------------------------------------------------------|
G#                       -1-----------0--------------------------------------------------------|

    after interlude:

A#  |------------------------------------------------------------------------------------------|
F#  |------------------------------------------------------------------------------------------|
C#  |------------------------------------------------------------------------------------------|
G#  |--0--------------7-------------6-------------7--------------------------------------------|
D#  |--0--------------5-------------4-------------5--------------------------------------------|
G#  |--0------------------------------------------0--------------------------------------------|

A#  -------------------------------------------|-----------------------------------------------|
F#  -------------------------------------------|-----------------------------------------------|
C#  -------------------------------------------|-----------------------------------------------|
G#  ---3--------------2-------------3----------|--0-------------7------------6----------7------|
D#  ---1--------------0-------------3----------|--0-------------5------------4----------5------|
G#  --------------------------------3----------|--0-------------------------------------0------|

A#  --------------------------------------------------------|-----------------------------------|
F#  --------------------------------------------------------|-----------------------------------|
C#  --------------------------------------------------------|-----------------------------------|
G#  ------------10-------------9----------------------------|-0-------------7----------6--------|
D#  ------------8--------------7-------------78787878787878-|-0-------------5----------4--------|
G#  --------------------------------------------------------|-0---------------------------------|

A#  ---------------------------------------------------------|---------------------------------|
F#  ---------------------------------------------------------|---------------------------------|
C#  ---------------------------------------------------------|---------------------------------|
G#  ---7--------------------------3-------------2-------3----|--0-------------7----------6-----|
D#  ---5--------------------------1-------------0-------3----|--0-------------5----------4-----|
G#  ---0-----------------------------------------~------3----|--0------------------------------|

A#  -------------------------------------------------------------------|
F#  -------------------------------------------------------------------|
C#  -------------------------------------------------------------------| repeat once
G#  ----7---------------------------10------------5-----------6--------|
D#  ----5---------------------------8-------------3-----------4--------|
G#  ----0--------------------------------------------------------------|

A#  |----------------------------------|
F#  |----------------------------------|
C#  |----------------------------------|
G#  |-0--------------------------------|
D#  |-0--------------------------------|
G#  |-0--------------------------------|
Tap to rate this tab
 
# A B C D E F G H I J K L M N O P Q R S T U V W X Y Z