Song name
# A B C D E F G H I J K L M N O P Q R S T U V W X Y Z

Burning Witch - Tower Place tab

BURNING WITCH

"Tower Place"


A#  |----------------------------------------------------------------------------------------|
F#  |----------------------------------------------------------------------------------------|
C#  |----------------------------------------------------------------------------------------|
G#  |--0---0-0-0---3---0-0-0---4---------1---------0---0-0-0---3---0-0-0---4-------1---3-----|
D#  |--0---0-0-0---1---0-0-0---4---------1---------0---0-0-0---1---0-0-0---4-------1---3-----|
G#  |--0---0-0-0-------0-0-0---4---------1---------0---0-0-0-------0-0-0---4-------1---3-----|

A#  |----------------------------------------------------------------------------------------|
F#  |----------------------------------------------------------------------------------------|
C#  |----------------------------------------------------------------------------------------|
G#  |--0-------11---11b-------1---1--------14---14-----------\0-------11---11b-------1---1---|
D#  |--0-------11---11b-------1---1--------14---14-----------\0-------11---11b-------1---1---|
G#  |--0-------11---11b-------1---1--------14---14-----------\0-------11---11b-------1---1---|

A#  ---------------------------|
F#  ---------------------------|
C#  ---------------------------|
G#  ------14--13--12---------\-|
D#  ------14--13--12---------\-|
G#  ------14--13--12---------\-|


    "clock ticking strikes the hour..."
A#  |----------------------------------------------------------------------------------------|
F#  |----------------------------------------------------------------------------------------|
C#  |----------------------------------------------------------------------------------------|
G#  |--0---0-0-0---3---0-0-0---4-------1---3-------0---0-0-0---3---0-0-0---4-----------1-----|
D#  |--0---0-0-0---1---0-0-0---4-------1---3-------0---0-0-0---1---0-0-0---4-----------1-----|
G#  |--0---0-0-0-------0-0-0---4-------1---3-------0---0-0-0-------0-0-0---4-----------1-----|

    "whirlwind of confusion..."
A#  |----------------------------------------------------------------------------------------|
F#  |----------------------------------------------------------------------------------------|
C#  |----------------------------------------------------------------------------------------|
G#  |--0---0-0-0---3---0-0-0---4---------1---------0---0-0-0---3---0-0-0---4-----------------|
D#  |--0---0-0-0---1---0-0-0---4---------1---------0---0-0-0---1---0-0-0---4-----------------|
G#  |--0---0-0-0-------0-0-0---4---------1---------0---0-0-0-------0-0-0---4-----------------|


A#  ------|
F#  ------|
C#  ------|
G#  --0---|
D#  --0---|
G#  --0---|
Tap to rate this tab
 
# A B C D E F G H I J K L M N O P Q R S T U V W X Y Z