Song name
# A B C D E F G H I J K L M N O P Q R S T U V W X Y Z

Burnout - Full Circle tab

			Full Circle
			 by Burnout
    
Drop-D tuning
Intro:
e------------------------------------------------------
A------------------------------------------------------
D------------------------------------------------------
G-5-5-5-5- 3-3-3-3-------------------------------------
B--------------------- 5-5-5-5-7-7-7-7-----------------            
D -------------------- 0-0-0-0-0-0-0-0-----------------     X2 

Verse:
e-------------------------------------------------------
A-------------------------------------------------------
D-------------------------------------------------------
G--0-5-0-3-0-0-0----------------------------------------
B--0-5-0-3-0-0-0----------------------------------------            
D--0-5-0-3-0-0-0----------------------------------------      

Chorus:
e---------------------------------------------------
A---------------------------------------------------
D---------------------------------------------------
G-5-5-7-9-9-9-3-3-5-7-7-7---------------------------
B-5-5-7-9-9-9-3-3-5-7-7-7---------------------------          
D-5-5-7-9-9-9-3-3-5-7-7-7---------------------------

Bridge:
e-----------------------------------------------------
A-----------------------------------------------------
D-----------------------------------------------------
G--0-5-0-3-0-0-0--0-5-0-3-0---------------------------
B--0-5-0-3-0-0-0--0-5-0-3-0---------------------------           
D--0-5-0-3-0-0-0--0-5-0-3-0---------------------------     

Solo:
e-----------------------------------------------------------
A-----------------------------------------------------------
D-0--5--0--3--0--0--0---0--5--0--3--5/7---------------------
G-----------------------------------------------------------
B-----------------------------------------------------------      
D----------------------------------------------------------- X4
Tap to rate this tab
# A B C D E F G H I J K L M N O P Q R S T U V W X Y Z