Song name
# A B C D E F G H I J K L M N O P Q R S T U V W X Y Z

Burns Out Bright - Crowded Streets Empty Skies tab

Band - Burns Out Bright 
Song - Crowded Streets, Empty Skies.
Tabber - jeff


e |------------------------------------------------------------|
B |------------------------------------------------------------|
G |------------------------5-5-5-------------------------5-5-5-| 
D |-5-5-5-5-5-5-5-5-5-5-5-5------5-5-5-5-5-5-5-5-5-5-5-5-------|
A |------------------------------------------------------------|
E |------------------------------------------------------------|


e |----------------------|
B |----------------------|
G |----------------------|
D |-12-12--9-9--7-7--9-9-| 2x
A |-12-12--9-9--7-7--9-9-|
E |-12-12--9-9--7-7--9-9-|
Tap to rate this tab
# A B C D E F G H I J K L M N O P Q R S T U V W X Y Z