Song name
# A B C D E F G H I J K L M N O P Q R S T U V W X Y Z

Burnside - Will I Find You There tab

Artist : Burnside
Title : Will I Find You There
Link : http://www.youtube.com/watch?v=Jgl_96K0Faw
Tabbed By : Yousif Jamal Mahbouba
Country : IraQ/Baghdad
Tuning :  Step Down

Intro

|---3---3--3---s5---s7----2---2---2---3---3--3--|
|-----------------------------------------------|
|-----------------------------------------------|
|-----------------------------------------------| X2
|-----------------------------------------------|
|-00--00--0--00---00----00--00-0----00--00--0---|

Verse : 

|---3---3--3---s5---s7----2---2---2---3---3--3--|
|-----------------------------------------------|
|-----------------------------------------------|
|-----------------------------------------------| X3
|-----------------------------------------------|
|-00--00--0--00---00----00--00-0----00--00--0---|


|---5---5--5---7----7---7--3---3--3----3---3--3-|
|-----------------------------------------------|
|-----------------------------------------------|
|-----------------------------------------------| X2
|-----------------------------------------------|
|-00--00--0--00---00--0--00--00-0----00--00--0--|

*Optional Acoustic Guitar During Verse : C D Em

Chorus (Distortion) : C5 (1 bar) D5 (1 bar) E5 (2 Bars)

Bridge (Distortion) : C5 (1 bar) D5 (1 bar) E5 (2 Bars)

Little Riff After Bridge :
|---3---3--3---2----2---2--5---5--5----5---5--5-|
|-----------------------------------------------|
|-----------------------------------------------|
|-----------------------------------------------| 
|-----------------------------------------------|
|-00--00--0--00---00--0--00--00-0----00--00--0--|

|---7---7--7---5----5---5--3---3--3--|
|------------------------------------|
|------------------------------------|
|------------------------------------| 
|------------------------------------|
|-00--00--0--00---00--0--00--00-0----|
Tap to rate this tab
 
# A B C D E F G H I J K L M N O P Q R S T U V W X Y Z