Song name
# A B C D E F G H I J K L M N O P Q R S T U V W X Y Z

Burt Bacharach - What The World Needs Now tab

E-------------------------------------------------------------|
B--------3--3--0-----3--3--0----------------------0-----3-----|
G-----0-----------------------2--0--2---0------0--------x-----|
D--2--------------0-------------------2------2---------(2)----|
A-------------------------------------------------------------|
E-------------------------------------------------------------|

E-------------------------------------------------------------|
B--0------------3--3--0-----3--3--0---------------------0---2-|
G----2--2-----0----------------------2--0--2---0-----0----2---|
D----------2-------------0-------------------2-----2----------|
A-------------------------------------------------------------|
E-------------------------------------------------------------|
Tap to rate this tab
 
# A B C D E F G H I J K L M N O P Q R S T U V W X Y Z