Guitaretab - guitar tabs
Song name
# A B C D E F G H I J K L M N O P Q R S T U V W X Y Z

Burt Bacharach - What The World Needs Now tab

e|-------7--7------7---4-----4-------7------7---4------4-------2---0---2--0--|
B|--4--5----4------4---5-----5-------4------4---5------5-------2---2---2--2--|
G|----------4------4---4-----4-------4------4---4------4-------2---2---2--2--|
D|--------------4----------6-----6-------4----------6------6-----------------|
A|---------------------4------------------------4--------------0-------0-----|
E|----------4------------------------4---------------------------------------|

e|--0----0--2--4---4------4----2-------|
B|--2--------------2------2----0-------|
G|--2--------------2------2----2-------|
D|---------------------2-------1-------|
A|-----------------------------2-------|
E|-----------------2-------------------|
[ Tab from: http://www.guitaretab.com/b/burt-bacharach/188907.html ]
Related for What The World Needs Now tab