Song name
# A B C D E F G H I J K L M N O P Q R S T U V W X Y Z

Bury Tomorrow - These Woods Arent Safe For Us tab

Right now this is just for guitar 1, 
I was too lazy to do guitar 2 when it's not that different, 
only difference is the interlude is played by guitar 2 when the bridge comes in 
(At least I think, it would get boring for guitar 1 to play that for like 1 minute lol) 
And there's a slight difference in the octave chords at the end, 
I'm sure you can work it out if you want. 
Strum patterns aren't perfect, but close. So enjoy...

INTRO
|-----------------------------------------------------|
|-----------------------------------------------------|
|------------6--------------6--------------6-----9/11-|
|-4-4-----0-7-4--4-4-----0-7-4--4-4-----0-7-4-2--7/-9-|
|-4-4-4-4--------4-4-4-4--------4-4-4-4-------2-------|
|-4-4-4-4--------4-4-4-4--------4-4-4-4-------2-------|
PT.2
|-----------------------------------------------------|
|-----------------------------------------------------|
|------------6--------------6--------------6----11/14-|
|-4-4-----0-7-4--4-4-----0-7-4--4-4-----0-7-4-2--9/12-|
|-4-4-4-4--------4-4-4-4--------4-4-4-4-------2-------|
|-4-4-4-4--------4-4-4-4--------4-4-4-4-------2-------|

CHORUS (X2)
|------------------------|
|------------------------|
|------------------------| x2
|-4444444-4--44444-4-4-4-|
|-4444444-4--44444-4-4-4-|
|-4444444-4--44444-4-4-4-|
  ....... .  ..... . . .
PT.2
|------------------------------------------------|
|------------------------------------------------|
|------------------------------------------------|
|-0000000-0--00000-0-0-0--0000000-0--00000-2-2-2-|
|-0000000-0--00000-0-0-0--0000000-0--00000-2-2-2-|
|-0000000-0--00000-0-0-0--0000000-0--00000-2-2-2-|
  ....... .  ..... . . .  ....... .  ..... . . .

VERSE
|-----------------------------------------------------|
|-----------------------------------------------------|
|--------7-------------------------7------------------|
|-7--9-10-10-9-7--9-10------7--9-10-10-9-7--9-10------|
|---------------------7-9-7-9-------------------7-9-7-|
|-----------------------------------------------------|
PT.2
|-------------------------------------------12-|
|---------------9-10-9----------------9-10-9---|
|--------11-9-11------9--------11-9-11---------|
|-9-11-12---------------9-11-12----------------|
|----------------------------------------------|
|----------------------------------------------|

Repeat VERSE pt 1 and 2

VERSE PT.3
|----------------------|
|----------------------|
|--------13------------|
|-44-4-4--x------------|
|-44-4-4-11--444444444-|
|-44-4-4-----444444444-|
             .........
VERSE PT.4 (x2)
|----------------------------------------------|
|----------------------------------------------|
|-1414-13-14-1818181818--1414-13-14-1111111111-|
|--x-x--x--x--x-x-x-x-x---x-x--x--x--x-x-x-x-x-|
|-1212-11-12-1616161616--1212-11-12--9-9-9-9-9-|
|----------------------------------------------|

|-------------------------------------------------|
|-------------------------------------------------|
|-1414-13-14-181818181818-191919-18-16-1818181818-|
|--x-x--x--x--x-x-x-x-x-x--x-x-x--x--x--x-x-x-x-x-|
|-1212-11-12-161616161616-171717-16-14-1414141414-|
|-------------------------------------------------|

CHORUS 2 (x2)
|--------------------------|
|--------------------------|
|--------------------------| x2
|--------------------------|
|-44444444444-444444-4-4-4-|
|-44444444444-444444-4-4-4-|
  ........... ...... . . .
PT.2
|----------------------------------------------------|
|----------------------------------------------------|
|----------------------------------------------------|
|----------------------------------------------------|
|-00000000000-000000-0-0-0--00000000000-000000-2-2-2-|
|-00000000000-000000-0-0-0--00000000000-000000-2-2-2-|
  ........... ...... . . .  ........... ...... . . .

INTERLUDE
|-------------------------------------------|
|-7---7---7---7---7----7---7---7---7---7----|
|--9---9---9---9---9----9---9---9---9---9---|
|---10--10--10--10--10---10--10--10--10--10-|
|-------------------------------------------|
|-------------------------------------------|
PT.2
|--------------------------------------|
|-10--10--10--10--10---9--9--9--9--9---|
|---9---9---9---9---9---9--9--9--9--9--|
|----7---7---7---7---7---7--7--7--7--7-|
|--------------------------------------|
|--------------------------------------|

Play INTERLUDE Pt.1 and Pt.2 three times, then...

|-------------------------------------------|
|-7---7---7---7---7----7---7---7---7---7----|
|--9---9---9---9---9----9---9---9---9---9---|
|---10--10--10--10--10---10--10--10--10--10-|
|-------------------------------------------|
|-------------------------------------------|
PT.2
|-------------------------------------|
|-10--10--10--10--10---9--9--9--7--7--|
|---9---9---9---9---9---9--9--9--9--9-|
|----7---7---7---7---7---7--7--7--7---|
|-------------------------------------|
|-------------------------------------|

BRIDGE
|---------------------------------------------------------------|
|---------------------------------------------------------------|
|---------------------------------------------------------------|
|-4-44444-4-44--0-0-0-0-0000--444-4-4--0-0-0-0----------------4-|
|-4-44444-4-44--0-0-0-0-0000--444-4-4--0-0-0-0-00000000000000-4-|
|-4-44444-4-44--0-0-0-0-0000--444-4-4--0-0-0-0-00000000000000-4-|
                . . .         ...      . . .   ..............

CHORUS 3
|------------------------------------------|
|------------------------------------------|
|------------------------------------------| x2
|------------------------------------------|
|-00000000-000-0-0-3*--00000000-000-0-0-3b-|
|-00000000-000-0-0-----00000000-000-0-0----|
  ........ ... . .     ........ ... . .
|--------------------------------------------|
|--------------------------------------------|
|--------------------------------------------|
|-------------------2*-----------------------|
|-0000000000-000-0-0---0000000000-000-0-0-3b-|
|-0000000000-000-0-0---0000000000-000-0-0----|
  .......... ... . .   .......... ... . .
|---------------------------------------------|
|---------------------------------------------|
|---------------------------------------------|
|---------------------------------------------|
|-000000000-000-0-0-3*--0000000000-00-0-0-0-0-|
|-000000000-000-0-0-----0000000000-00-0-0-0-0-|
  ......... ... . .     .......... .. . . . .

OUTRO
|-------------------------------------------------------------|
|-------------------------------------------------------------|
|-18181818181818-18181818181818-18181818181818-18181818181818-|
|--x-x-x-x-x-x-x--x-x-x-x-x-x-x--x-x-x-x-x-x-x--x-x-x-x-x-x-x-|
|-16161616161616-16161616161616-16161616161616-16161616161616-|
|-------------------------------------------------------------|

|-------------------------------------------------------------|
|-------------------------------------------------------------|
|-14141414141414-14141414141414-14141414141414-14141414141414-|
|--x-x-x-x-x-x-x--x-x-x-x-x-x-x--x-x-x-x-x-x-x--x-x-x-x-x-x-x-|
|-12121212121212-12121212121212-12121212121212-12121212121212-|
|-------------------------------------------------------------|

|-------------------------------------------------------------|
|-------------------------------------------------------------|
|-18181818181818-18181818181818-18181818181818-18181818181818-|
|--x-x-x-x-x-x-x--x-x-x-x-x-x-x--x-x-x-x-x-x-x--x-x-x-x-x-x-x-|
|-16161616161616-16161616161616-16161616161616-16161616161616-|
|-------------------------------------------------------------|

|--------------------------------------------------------------------------|
|--------------------------------------------------------------------------|
|-1111111111111111-1313131313131313-1414141414141414-181818181818-1616-18~-|
|--x-x-x-x-x-x-x-x--x-x-x-x-x-x-x-x--x-x-x-x-x-x-x-x--x-x-x-x-x-x--x-x--x~-|
|--9-9-9-9-9-9-9-9-1111111111111111-1212121212121212-161616161616-1414-16~-|
|--------------------------------------------------------------------------|
Tap to rate this tab
 
# A B C D E F G H I J K L M N O P Q R S T U V W X Y Z