Bury Tomorrow - Waxed Wings tab

My first tab. It may be wrong. I'm not sure. This is just for guitar 1. The "10" 
in the intro is a ten, not one and zero. 

Intro/ Verse 1(0:00-:29)
D|--------------------------------------------------------------------------|
A|--------------------------------------------------------------------------|
F|--------------------------------------------------------------------------|
C|-007-7-7--00007-7-7-00-00--007-7-7--00007-7-71010-1010--------------------|
G|-007-7-7--00007-7-7-00-00--007-7-7--00007-7-71010-1010--------------------|
C|-007-7-7--00007-7-7-00-00--007-7-7--00007-7-71010-1010--------------------|
   ... . .  ..... . . .. ..  ... . .  ..... . . . .  . .

D|------------------------------------------------------------=-------------|
A|--------------------------------------------------------------------------|
F|--------------------------------------------------------------------------|
C|-003-3-3--00003-3-3-00-00--003-3-3--00003-3-3-55-55-----------------------|
G|-003-3-3--00003-3-3-00-00--003-3-3--00003-3-3-55-55-----------------------|
C|-003-3-3--00003-3-3-00-00--003-3-3--00003-3-3-55-55-----------------------|
   ... . .  ..... . . .. ..  ... . .  ..... . . .. ..

D|--------------------------------------------------------------------------|
A|--------------------------------------------------------------------------|
F|--------------------------------------------------------------------------|
C|-007-7-7--00007-7-7-00-00--007-7-7--00007-7-71010-1010--------------------|
G|-007-7-7--00007-7-7-00-00--007-7-7--00007-7-71010-1010--------------------|
C|-007-7-7--00007-7-7-00-00--007-7-7--00007-7-71010-1010--------------------|
   ... . .  ..... . . .. ..  ... . .  ..... . . . .  . .

D|--------------------------------------------------------------------------|
A|--------------------------------------------------------------------------|
F|--------------------------------------------------------------------------|
C|-003-3-3--00003-3-3-00-00--003-3-3--00003-3-3-5---------------------------|
G|-003-3-3--00003-3-3-00-00--003-3-3--00003-3-3-5---------------------------|
C|-003-3-3--00003-3-3-00-00--003-3-3--00003-3-3-5---------------------------|
   ... . .  ..... . . .. ..  ... . .  ..... . . 

Pre-Chorus (:30-1:02)
D|--------------------------------------------------------------------------|
A|--------------------------------------------------------------------------|
F|--------------------------------------------------------------------------|
C|-0~~~~~~~7~~~~7~~~~-3~~~2~~0~~~~~~000-000-000-000-0-0-0-------------------|
G|-0~~~~~~~7~~~~7~~~~-3~~~2~~0~~~~~~000-000-000-000-0-0-0-------------------|
C|-0~~~~~~~7~~~~7~~~~-3~~~2~~0~~~~~~000-000-000-000-0-0-0-------------------|
                                    ... ... ... ... . . .

D|--------------------------------------------------------------------------|
A|--------------------------------------------------------------------------|
F|--------------------------------------------------------------------------|
C|-0~~~~~~~7~~~~7~~~~-3~~~2~~0~~~~~~000-000-000-000-0-0-0-------------------|
G|-0~~~~~~~7~~~~7~~~~-3~~~2~~0~~~~~~000-000-000-000-0-0-0-------------------|
C|-0~~~~~~~7~~~~7~~~~-3~~~2~~0~~~~~~000-000-000-000-0-0-0-------------------|
                                    ... ... ... ... . . .
 
D|--------------------------------------------------------------------------|
A|--------------------------------------------------------------------------|
F|--------------------------------------------------------------------------|
C|000-000-000-000-0-0-0-----------------------------------------------------|
G|000-000-000-000-0-0-0-----------------------------------------------------|
C|000-000-000-000-0-0-0-----------------------------------------------------|
  ... ... ... ... . . .

Chorus(1:04-1:33)
D|--------------------------------------------------------------------------|
A|--------------------------------------------------------------------------|
F|--------------------------------------------------------------------------|
C|7-7-7-7-7-7-7-7-7-5-5-5-3-3-3-3-3-3-3-3-3-2-2-2-0-0-0-0-0-0-0-0-0---------|
G|7-7-7-7-7-7-7-7-7-5-5-5-3-3-3-3-3-3-3-3-3-2-2-2-0-0-0-0-0-0-0-0-0---------|
C|7-7-7-7-7-7-7-7-7-5-5-5-3-3-3-3-3-3-3-3-3-2-2-2-0-0-0-0-0-0-0-0-0---------|

D|--------------------------------------------------------------------------|
A|--------------------------------------------------------------------------|
F|--------------------------------------------------------------------------|
C|2-2-2-3-3-3-3-3-3-5-5-5-5-5-5---------------------------------------------|
G|2-2-2-3-3-3-3-3-3-5-5-5-5-5-5---------------------------------------------|
C|2-2-2-3-3-3-3-3-3-5-5-5-5-5-5---------------------------------------------|

D|--------------------------------------------------------------------------|
A|--------------------------------------------------------------------------|
F|--------------------------------------------------------------------------|
C|777777777555333333333222000000000222333333555555--------------------------|
G|777777777555333333333222000000000222333333555555--------------------------|
C|777777777555333333333222000000000222333333555555--------------------------|

Intro breakdown (1:34-2:03)

Pre-chorus (2:04-2:21)

Interlude (2:22-2:36)

D|--------------------------------------------------------------------------|
A|--------------------------------------------------------------------------|
F|--------------------------------------------------------------------------|
C|0~~~~~~~~~0~~~~~~~~~~~0~~~~~~~~~0~~~~~~~~~~~------------------------------|
G|0~~~~~~~~~0~~~~~~~~~~~0~~~~~~~~~0~~~~~~~~~~~------------------------------|
C|0~~~~~~~~~0~~~~~~~~~~~0~~~~~~~~~0~~~~~~~~~~~------------------------------| 

Breakdown(figure out the rhythm, its all 0's) (2:37-3:05)

Chorus (3:06-end)
Tap to rate this tab
 
# A B C D E F G H I J K L M N O P Q R S T U V W X Y Z