Bury Tomorrow - Waxed Wings tab

Artist: Bury Tomorrow
Song: Waxed Wings
Album: Portraits LTD Edition
Tuning: Drop C  [CGCFAD]

This is just the lead in the chorus, as I am too lazy to work out the rest atm!

D|--------12----------------------------|
A|-12b 10----13b-12-13-12b-10-----10----|
F|----------------------------12b-------|
C|--------------------------------------|
G|--------------------------------------|
C|--------------------------------------|


D|--------12----------------------------|
A|-12b 10----13b-12-13-12b-10-----10----|
F|----------------------------12b-------|
C|--------------------------------------|
G|--------------------------------------|
C|--------------------------------------|


D|--------12----------------------------|
A|-12b 10----13b-12-13-12b-10-----10----|
F|----------------------------12b-------|
C|--------------------------------------|
G|--------------------------------------|
C|--------------------------------------|


D|--------12---------------10-12------------|
A|-12b 10----13b-12-13-12b--------10-(12b)--|
F|------------------------------------------|
C|------------------------------------------|
G|------------------------------------------|
C|------------------------------------------|
Tap to rate this tab
 
# A B C D E F G H I J K L M N O P Q R S T U V W X Y Z