Song name
# A B C D E F G H I J K L M N O P Q R S T U V W X Y Z

Bury Tomorrow - Waxed Wings tab

BURY TOMORROW

WAXED WINGS

C-G-C-F-A-D

TABBED BY andherembrace



1
---^--------^-----^-----^--------^-----^-----^----|
-13-10-12/13-10-15-10-13-10-12/13-10-17-10-15-10--|
--------------------------------------------------|
--------------------------------------------------|
--------------------------------------------------|
--------------------------------------------------|
 T      T        T     T     T        T     T
2
--------------------------------------------------|
--------------------------------------------------|
--------------------------------------------------|
--------------------------------------------------|
-7--7----7----7----7------------------------------|
-7--7----7----7----7------------------------------|
 *  *    *    *    *


1
---^--------^-----^-----^--------^-----^----^-----|
-13-10-12/13-10-15-10-13-10-12/13-10-12-8-13-8----|
--------------------------------------------------|
--------------------------------------------------|
--------------------------------------------------|
--------------------------------------------------|
 T      T        T     T     T        T     T
2
--------------------------------------------------|
--------------------------------------------------|
--------------------------------------------------|
--------------------------------------------------|
-0--5--7--7----7----7----7----0--0---0--0---------|
-0--5--7--7----7----7----7----0--0---0--0---------|
 *  *  *  *    *    *    *    *  *   *  *


1
---^--------^-----^-----^--------^-----^-----^----|
-13-10-12/13-10-15-10-13-10-12/13-10-17-10-15-10--|
--------------------------------------------------|
--------------------------------------------------|
--------------------------------------------------|
--------------------------------------------------|
 T      T        T     T     T        T     T
2
--------------------------------------------------|
--------------------------------------------------|
--------------------------------------------------|
--------------------------------------------------|
-7--7----7----7----7------------------------------|
-7--7----7----7----7------------------------------|
 *  *    *    *    *



1
---^--------^-----^-----^--------^-----^----^-----|
-13-10-12/13-10-15-10-13-10-12/13-10-12-8-13-8----|
--------------------------------------------------|
--------------------------------------------------|
--------------------------------------------------|
--------------------------------------------------|
 T      T        T     T     T        T     T
2
--------------------------------------------------|
--------------------------------------------------|
--------------------------------------------------|
--------------------------------------------------|
-0--5--7--7----7----7----7---10-10--10-10---------|
-0--5--7--7----7----7----7---10-10--10-10---------|
 *  *  *  *    *    *    *    *  *   *  *



1
---^--------^-----^-----^--------^-----^-----^----|
-13-10-12/13-10-15-10-13-10-12/13-10-17-10-15-10--|
--------------------------------------------------|
--------------------------------------------------|
--------------------------------------------------|
--------------------------------------------------|
 T      T        T     T     T        T     T
2
--------------------------------------------------|
--------------------------------------------------|
--------------------------------------------------|
--------------------------------------------------|
-3--3----3----3----3------------------------------|
-3--3----3----3----3------------------------------|
 *  *    *    *    *



1
---^--------^-----^-----^--------^-----^----^-----|
-13-10-12/13-10-15-10-13-10-12/13-10-12-8-13-8----|
--------------------------------------------------|
--------------------------------------------------|
--------------------------------------------------|
--------------------------------------------------|
 T      T        T     T     T        T     T
2
--------------------------------------------------|
--------------------------------------------------|
--------------------------------------------------|
--------------------------------------------------|
-0--2--3--3----3----3----3----0--0---0--0---------|
-0--2--3--3----3----3----3----0--0---0--0---------|
 *  *  *  *    *    *    *    *  *   *  *



1
---^--------^-----^-----^--------^-----^-----^----|
-13-10-12/13-10-15-10-13-10-12/13-10-17-10-15-10--|
--------------------------------------------------|
--------------------------------------------------|
--------------------------------------------------|
--------------------------------------------------|
 T      T        T     T     T        T     T
2
--------------------------------------------------|
--------------------------------------------------|
--------------------------------------------------|
--------------------------------------------------|
-3--3----3----3----3------------------------------|
-3--3----3----3----3------------------------------|
 *  *    *    *    *



1
---^--------^-----^-----^--------^-----^----^-----|
-13-10-12/13-10-15-10-13-10-12/13-10-12-8-13-8----|
--------------------------------------------------|
--------------------------------------------------|
--------------------------------------------------|
--------------------------------------------------|
 T      T        T     T     T        T     T
2
------------------------------------------|
------------------------------------------|
------------------------------------------|
------------------------------------------|
-0--2--3--3----3----3----3----5--5--5--5--|
-0--2--3--3----3----3----3----5--5--5--5--|
 *  *  *  *    *    *    *    *  *  *  *




0:15


1
---^--------^-----^-----^--------^-----^-----^----|
-13-10-12/13-10-15-10-13-10-12/13-10-17-10-15-10--|
--------------------------------------------------|
--------------------------------------------------|
--------------------------------------------------|
--------------------------------------------------|
 T      T        T     T     T        T     T
2
--------------------------------------------------|
--------------------------------------------------|
--------------------------------------------------|
--------------------------------------------------|
-7--7----7----7----7------------------------------|
-7--7----7----7----7------------------------------|
 *  *    *    *    *


1
---^--------^-----^-----^--------^-----^----^-----|
-13-10-12/13-10-15-10-13-10-12/13-10-12-8-13-8----|
--------------------------------------------------|
--------------------------------------------------|
--------------------------------------------------|
--------------------------------------------------|
 T      T        T     T     T        T     T
2
--------------------------------------------------|
--------------------------------------------------|
--------------------------------------------------|
--------------------------------------------------|
-0--5--7--7----7----7----7----0--0---0--0---------|
-0--5--7--7----7----7----7----0--0---0--0---------|
 *  *  *  *    *    *    *    *  *   *  *


1
---^--------^-----^-----^--------^-----^-----^----|
-13-10-12/13-10-15-10-13-10-12/13-10-17-10-15-10--|
--------------------------------------------------|
--------------------------------------------------|
--------------------------------------------------|
--------------------------------------------------|
 T      T        T     T     T        T     T
2
--------------------------------------------------|
--------------------------------------------------|
--------------------------------------------------|
--------------------------------------------------|
-7--7----7----7----7------------------------------|
-7--7----7----7----7------------------------------|
 *  *    *    *    *



1
---^--------^-----^-----^--------^-----^----^-----|
-13-10-12/13-10-15-10-13-10-12/13-10-12-8-13-8----|
--------------------------------------------------|
--------------------------------------------------|
--------------------------------------------------|
--------------------------------------------------|
 T      T        T     T     T        T     T
2
--------------------------------------------------|
--------------------------------------------------|
--------------------------------------------------|
--------------------------------------------------|
-0--5--7--7----7----7----7---10-10--10-10---------|
-0--5--7--7----7----7----7---10-10--10-10---------|
 *  *  *  *    *    *    *    *  *   *  *



1
---^--------^-----^-----^--------^-----^-----^----|
-13-10-12/13-10-15-10-13-10-12/13-10-17-10-15-10--|
--------------------------------------------------|
--------------------------------------------------|
--------------------------------------------------|
--------------------------------------------------|
 T      T        T     T     T        T     T
2
--------------------------------------------------|
--------------------------------------------------|
--------------------------------------------------|
--------------------------------------------------|
-3--3----3----3----3------------------------------|
-3--3----3----3----3------------------------------|
 *  *    *    *    *



1
---^--------^-----^-----^--------^-----^----^-----|
-13-10-12/13-10-15-10-13-10-12/13-10-12-8-13-8----|
--------------------------------------------------|
--------------------------------------------------|
--------------------------------------------------|
--------------------------------------------------|
 T      T        T     T     T        T     T
2
--------------------------------------------------|
--------------------------------------------------|
--------------------------------------------------|
--------------------------------------------------|
-0--2--3--3----3----3----3----0--0---0--0---------|
-0--2--3--3----3----3----3----0--0---0--0---------|
 *  *  *  *    *    *    *    *  *   *  *



1
---^--------^-----^-----^--------^-----^-----^----|
-13-10-12/13-10-15-10-13-10-12/13-10-17-10-15-10--|
--------------------------------------------------|
--------------------------------------------------|
--------------------------------------------------|
--------------------------------------------------|
 T      T        T     T     T        T     T
2
--------------------------------------------------|
--------------------------------------------------|
--------------------------------------------------|
--------------------------------------------------|
-3--3----3----3----3------------------------------|
-3--3----3----3----3------------------------------|
 *  *    *    *    *



1
---^--------^-----^-----^------------|
-13-10-12/13-10-15-10-13-10\---------|
-------------------------------------|
-------------------------------------|
-------------------------------------|
-------------------------------------|
 T      T        T     T        
2
-----------------------------------------|
-----------------------------------------|
-----------------------------------------|
-----------------------------------------|
-0--2--3--3----3----3----3----5----------|
-0--2--3--3----3----3----3----5----------|
 *  *  *  *    *    *    *      |






0:29



1
-0------------0-----------0-----------8-----------0-----------8-----------|
------6-----------6-----------6-----------6-----------6-----------6-------|
----------7-----------7-----------7-----------7-----------7-----------7---|
--------------------------------------------------------------------------|
--------------------------------------------------------------------------|
--------------------------------------------------------------------------|

2
--------------------------------------------------------------------------|
--------------------------------------------------------------------------|
--------------------------------------------------------------------------|
--------------------------------------------------------------------------|
-0------------------------10----------10-----12----8-----7----5--------)--|
-0------------------------10----------10-----10----8-----7----5-------3---|



B
-------------------------------------------------|
-------------------------------------------------|
-------------------------------------------------|
-------------------------------------------------|
-0-0-0----0-0-0----0-0-0----0-0-0---0---0---0----|
-0-0-0----0-0-0----0-0-0----0-0-0---0---0---0----|
 * * *    * * *    * * *    * * *   *   *   *



1
-0------------0-----------0-----------8-----------0-----------8-----------|
------6-----------6-----------6-----------6-----------6-----------6-------|
----------7-----------7-----------7-----------7-----------7-----------7---|
--------------------------------------------------------------------------|
--------------------------------------------------------------------------|
--------------------------------------------------------------------------|

2
--------------------------------------------------------------------------|
--------------------------------------------------------------------------|
--------------------------------------------------------------------------|
--------------------------------------------------------------------------|
-0------------------------10----------10-----12----8-----7----5--------)--|
-0------------------------10----------10-----10----8-----7----5-------3---|




B
-------------------------------------------------|
-------------------------------------------------|
-------------------------------------------------|
-------------------------------------------------|
-0-0-0----0-0-0----0-0-0----0-0-0---0---0---0----|
-0-0-0----0-0-0----0-0-0----0-0-0---0---0---0----|
 * * *    * * *    * * *    * * *   *   *   *

-------------------------------------------------|
-------------------------------------------------|
-------------------------------------------------|
-------------------------------------------------|
-0-0-0----0-0-0----0-0-0----0-0-0---0---0---0----|
-0-0-0----0-0-0----0-0-0----0-0-0---0---0---0----|
 * * *    * * *    * * *    * * *   *   *   *






---) (-----12----------|
-12----10------13--12--|
-----------------------|
-----------------------|
-----------------------|
-----------------------|




1:04


1
---) (-----12------------) (-----------------|
-12----10------13--12--12----10------10--12--|
---------------------------------12----------|
---------------------------------------------|
---------------------------------------------|
---------------------------------------------|

2
---------------------------------------------|
---------------------------------------------|
---------------------------------------------|
---------------------------------------------|
-7--7----7--7--7--7----7--7----5--5--5--3----|
-7--7----7--7--7--7----7--7----5--5--5--3----|




1
---) (-----12------------) (-----------------|
-12----10------13--12--12----10------10--12--|
---------------------------------12----------|
---------------------------------------------|
---------------------------------------------|
---------------------------------------------|

2
---------------------------------------------|
---------------------------------------------|
---------------------------------------------|
---------------------------------------------|
-3--3----3--3--3--3----3--3---2--2--2--0-----|
-3--3----3--3--3--3----3--3---2--2--2--0-----|




1
---) (-----12------------) (-----------------|
-12----10------13--12--12----10------10--12--|
---------------------------------12----------|
---------------------------------------------|
---------------------------------------------|
---------------------------------------------|

2
---------------------------------------------|
---------------------------------------------|
---------------------------------------------|
---------------------------------------------|
-0--0----0--0--0--0----0--0----0--0--0--0----|
-0--0----0--0--0--0----0--0----0--0--0--0----|




1
---) (-----12------------) (-----15----------|
-12----10------13--12--12----10------13--12--|
---------------------------------------------|
---------------------------------------------|
---------------------------------------------|
---------------------------------------------|

2
---------------------------------------------|
---------------------------------------------|
---------------------------------------------|
---------------------------------------------|
-3--3----3--3--3--3----5--5----5--5--5--5----|
-3--3----3--3--3--3----5--5----5--5--5--5----|






1:19


1
---) (-----12------------) (-----------------|
-12----10------13--12--12----10------10--12--|
---------------------------------12----------|
---------------------------------------------|
---------------------------------------------|
---------------------------------------------|

2
---------------------------------------------|
---------------------------------------------|
---------------------------------------------|
---------------------------------------------|
-7--7----7--7--7--7----7--7----5-5-5--5--3-3-|
-7--7----7--7--7--7----7--7----5-5-5--5--3-3-|




1
---) (-----12------------) (-----------------|
-12----10------13--12--12----10------10--12--|
---------------------------------12----------|
---------------------------------------------|
---------------------------------------------|
---------------------------------------------|

2
---------------------------------------------|
---------------------------------------------|
---------------------------------------------|
---------------------------------------------|
-3--3----3--3--3--3----3--3---2-2-2--2--0-0--|
-3--3----3--3--3--3----3--3---2-2-2--2--0-0--|




1
---) (-----12------------) (-----------------|
-12----10------13--12--12----10------10--12--|
---------------------------------12----------|
---------------------------------------------|
---------------------------------------------|
---------------------------------------------|

2
---------------------------------------------|
---------------------------------------------|
---------------------------------------------|
---------------------------------------------|
-0--0----0--0--0--0----0--0----0--0--0--0----|
-0--0----0--0--0--0----0--0----0--0--0--0----|




1
---) (-----12------------) (-----15----------|
-12----10------13--12--12----10------13--12--|
---------------------------------------------|
---------------------------------------------|
---------------------------------------------|
---------------------------------------------|

2
---------------------------------------------|
---------------------------------------------|
---------------------------------------------|
---------------------------------------------|
-3--3----3--3--3--3----5--5----5--5--5--5----|
-3--3----3--3--3--3----5--5----5--5--5--5----|






1:34



1
---^--------^-----^-----^--------^-----^-----^----|
-13-10-12/13-10-15-10-13-10-12/13-10-17-10-15-10--|
--------------------------------------------------|
--------------------------------------------------|
--------------------------------------------------|
--------------------------------------------------|
 T      T        T     T     T        T     T
2
--------------------------------------------------|
--------------------------------------------------|
--------------------------------------------------|
--------------------------------------------------|
-7--7----7----7----7------------------------------|
-7--7----7----7----7------------------------------|
 *  *    *    *    *


1
---^--------^-----^-----^--------^-----^----^-----|
-13-10-12/13-10-15-10-13-10-12/13-10-12-8-13-8----|
--------------------------------------------------|
--------------------------------------------------|
--------------------------------------------------|
--------------------------------------------------|
 T      T        T     T     T        T     T
2
--------------------------------------------------|
--------------------------------------------------|
--------------------------------------------------|
--------------------------------------------------|
-0--5--7--7----7----7----7----0--0---0--0---------|
-0--5--7--7----7----7----7----0--0---0--0---------|
 *  *  *  *    *    *    *    *  *   *  *


1
---^--------^-----^-----^--------^-----^-----^----|
-13-10-12/13-10-15-10-13-10-12/13-10-17-10-15-10--|
--------------------------------------------------|
--------------------------------------------------|
--------------------------------------------------|
--------------------------------------------------|
 T      T        T     T     T        T     T
2
--------------------------------------------------|
--------------------------------------------------|
--------------------------------------------------|
--------------------------------------------------|
-7--7----7----7----7------------------------------|
-7--7----7----7----7------------------------------|
 *  *    *    *    *



1
---^--------^-----^-----^--------^-----^----^-----|
-13-10-12/13-10-15-10-13-10-12/13-10-12-8-13-8----|
--------------------------------------------------|
--------------------------------------------------|
--------------------------------------------------|
--------------------------------------------------|
 T      T        T     T     T        T     T
2
--------------------------------------------------|
--------------------------------------------------|
--------------------------------------------------|
--------------------------------------------------|
-0--5--7--7----7----7----7---10-10--10-10---------|
-0--5--7--7----7----7----7---10-10--10-10---------|
 *  *  *  *    *    *    *    *  *   *  *



1
---^--------^-----^-----^--------^-----^-----^----|
-13-10-12/13-10-15-10-13-10-12/13-10-17-10-15-10--|
--------------------------------------------------|
--------------------------------------------------|
--------------------------------------------------|
--------------------------------------------------|
 T      T        T     T     T        T     T
2
--------------------------------------------------|
--------------------------------------------------|
--------------------------------------------------|
--------------------------------------------------|
-3--3----3----3----3------------------------------|
-3--3----3----3----3------------------------------|
 *  *    *    *    *



1
---^--------^-----^-----^--------^-----^----^-----|
-13-10-12/13-10-15-10-13-10-12/13-10-12-8-13-8----|
--------------------------------------------------|
--------------------------------------------------|
--------------------------------------------------|
--------------------------------------------------|
 T      T        T     T     T        T     T
2
--------------------------------------------------|
--------------------------------------------------|
--------------------------------------------------|
--------------------------------------------------|
-0--2--3--3----3----3----3----0--0---0--0---------|
-0--2--3--3----3----3----3----0--0---0--0---------|
 *  *  *  *    *    *    *    *  *   *  *



1
---^--------^-----^-----^--------^-----^-----^----|
-13-10-12/13-10-15-10-13-10-12/13-10-17-10-15-10--|
--------------------------------------------------|
--------------------------------------------------|
--------------------------------------------------|
--------------------------------------------------|
 T      T        T     T     T        T     T
2
---------------------------------------------------|
---------------------------------------------------|
---------------------------------------------------|
------------------------------------------------p--|
-3--3----3----3----3-----------------------------s-|
-3--3----3----3----3------------------------------\|
 *  *    *    *    *





1:49



B
--------------------------------------------------|
--------------------------------------------------|
--------------------------------------------------|
--------------------------------------------------|
-7--7----7----7----7------------------------------|
-7--7----7----7----7------------------------------|
 *  *    *    *    *

--------------------------------------------------|
--------------------------------------------------|
--------------------------------------------------|
--------------------------------------------------|
-0--5--7--7----7----7----7----0--0---0--0---------|
-0--5--7--7----7----7----7----0--0---0--0---------|
 *  *  *  *    *    *    *    *  *   *  *

--------------------------------------------------|
--------------------------------------------------|
--------------------------------------------------|
--------------------------------------------------|
-7--7----7----7----7------------------------------|
-7--7----7----7----7------------------------------|
 *  *    *    *    *

--------------------------------------------------|
--------------------------------------------------|
--------------------------------------------------|
--------------------------------------------------|
-0--5--7--7----7----7----7---10-10--10-10---------|
-0--5--7--7----7----7----7---10-10--10-10---------|
 *  *  *  *    *    *    *    *  *   *  *

--------------------------------------------------|
--------------------------------------------------|
--------------------------------------------------|
--------------------------------------------------|
-3--3----3----3----3------------------------------|
-3--3----3----3----3------------------------------|
 *  *    *    *    *

--------------------------------------------------|
--------------------------------------------------|
--------------------------------------------------|
--------------------------------------------------|
-0--2--3--3----3----3----3----0--0---0--0---------|
-0--2--3--3----3----3----3----0--0---0--0---------|
 *  *  *  *    *    *    *    *  *   *  *


--------------------------------------------------|
--------------------------------------------------|
--------------------------------------------------|
--------------------------------------------------|
-3--3----3----3----3------------------------------|
-3--3----3----3----3------------------------------|
 *  *    *    *    *

-----------------------------------------------|
-----------------------------------------------|
-----------------------------------------------|
-----------------------------------------------|
-0--2--3--3----3----3----3----5--5-------------|
-0--2--3--3----3----3----3----5--5---5-5-5-5---|
 *  *  *  *    *    *    *    *  *   





2:04


1
-0------------0-----------0-----------8-----------0-----------8-----------|
------6-----------6-----------6-----------6-----------6-----------6-------|
----------7-----------7-----------7-----------7-----------7-----------7---|
--------------------------------------------------------------------------|
--------------------------------------------------------------------------|
--------------------------------------------------------------------------|

2
--------------------------------------------------------------------------|
--------------------------------------------------------------------------|
--------------------------------------------------------------------------|
--------------------------------------------------------------------------|
-0------------------------10----------10-----12----8-----7----5--------)--|
-0------------------------10----------10-----10----8-----7----5-------3---|




B
-------------------------------------------------|
-------------------------------------------------|
-------------------------------------------------|
-------------------------------------------------|
-0-0-0----0-0-0----0-0-0----0-0-0---0---0---0----|
-0-0-0----0-0-0----0-0-0----0-0-0---0---0---0----|
 * * *    * * *    * * *    * * *   *   *   *

-------------------------------------------------|
-------------------------------------------------|
-------------------------------------------------|
-------------------------------------------------|
-0-0-0----0-0-0----0-0-0----0-0-0---0---0---0----|
-0-0-0----0-0-0----0-0-0----0-0-0---0---0---0----|
 * * *    * * *    * * *    * * *   *   *   *





2:22



1
---------------------------------------------|
---------------------------------------------|
---------------------------------------------|
-7----8--5--8--7----7----8------3------------|
-5----5--5--5--5----5----5------5--------)---|
-----------------------------00--------11----|
                             **     
2
---------------------------------------------|
---------------------------------------------|
---------------------------------------------|
-0------------------0------------------------|
-0------------------0--------------------)---|
-0------------------0------------------11----|



1
---------------------------------------------|
---------------------------------------------|
---------------------------------------------|
-7----8--5--8--7----7----8------3------------|
-5----5--5--5--5----5----5------5--------)---|
-----------------------------00--------11----|
                             **     
2
---------------------------------------------|
---------------------------------------------|
---------------------------------------------|
-0-------------------------------------------|
-0-------------------------------------------|
-0-------------------------------------------|






2:38



1
-------------------------------------------------------|
-----10-------11-------11--------6---------------------|
-7--------7--------7-------\/7-------7--------9--------|
-----------------------------------------/8-------8----|
-------------------------------------------------------|
-------------------------------------------------------|

2
-------------------------------------------------------|
-------------------------------------------------------|
-------------------------------------------------------|
-------------------------------------------------------|
-0-----0--0--0-----0---0-----0----0--0--0----0---0-----|
-0-----0--0--0-----0---0-----0----0--0--0----0---0-----|
 *     *  *  *     *   *     *    *  *  *    *   *


1
-------------------------------------------------------|
-----10-------11-------11--------6---------------------|
-7--------7--------7-------\/7-------7--------9--------|
-----------------------------------------/8-------8----|
-------------------------------------------------------|
-------------------------------------------------------|

2
-------------------------------------------------------|
-------------------------------------------------------|
-------------------------------------------------------|
-------------------------------------------------------|
-0-----0--0--0-----0---0-----0----0-0--0--0--0---------|
-0-----0--0--0-----0---0-----0----0-0--0--0--0---------|
 *     *  *  *     *   *     *    * *  *  *  *





2:51


B
------------------------------------------------------------|
------------------------------------------------------------|
------------------------------------------------------------|
-00-0---0000-0-0---0---00-0---00-0---0000-0-0---0---00-0-00-|
-00-0---0000-0-0---0---00-0---00-0---0000-0-0---0---00-0-00-|
-00-0---0000-0-0---0---00-0---00-0---0000-0-0---0---00-0-00-|
 ** *   **** * *   *   ** *   ** *   **** * *   *   ** * **

------------------------------------------------------------|
------------------------------------------------------------|
------------------------------------------------------------|
-00-0---0000-0-0---0---00-0---00-0---0000-0-0---0---00-0-00-|
-00-0---0000-0-0---0---00-0---00-0---0000-0-0---0---00-0-00-|
-00-0---0000-0-0---0---00-0---00-0---0000-0-0---0---00-0-00-|
 ** *   **** * *   *   ** *   ** *   **** * *   *   ** * **

R
-------|
-------|
-------|
-00----|
-00----|
-00----|
 **




3:08-3:38
CHORUS RIFF REPEATS TWICE W/SLIGHTLY DIFFERENT RYTHM STRUMMING PATTERN





3:38

SOLO +CHORUS RIFFS REPEAT

---_________________--__-----------------------------|
---)    |  |  |   | (/  \--------------^---17--------|
-19----19-19-19--19---17-19~~-17-----17-19-----------|
---------------------------------19-----------19~----|
-----------------------------------------------------|
-----------------------------------------------------|


3:45
         _________                                      
---------)  |  | (-17--------)-17--------)-17-----------)(^---------------|
-17-20-20--20-20-----20-17-20----20-17-20----20-17-20-20---17-------------|
--------------------------------------------------------------19-17~~16~~-|
--------------------------------------------------------------------------|
--------------------------------------------------------------------------|
--------------------------------------------------------------------------|



3:52


-24-24-24-20-20-22-22-19-19-20-20-17-17-19-19-20-|
-------------------------------------------------|
-------------------------------------------------|
-------------------------------------------------|
-------------------------------------------------|
-------------------------------------------------|


-24-24-24-20-20-22-22-19-19-20-20-17-17-19-19-20-|
-------------------------------------------------|
-------------------------------------------------|
-------------------------------------------------|
-------------------------------------------------|
-------------------------------------------------|


-24-24-24-20-20-22-22-19-19-20-20-17-17-19-19-20-|
-------------------------------------------------|
-------------------------------------------------|
-------------------------------------------------|
-------------------------------------------------|
-------------------------------------------------|
                       
   )     )(^                   )
-19----19---17-19~-----------19------------------|
-------------------------------------------------|
-------------------------------------------------|
-------------------------------------------------|
-------------------------------------------------|
-------------------------------------------------|
Tap to rate this tab
# A B C D E F G H I J K L M N O P Q R S T U V W X Y Z