Song name
# A B C D E F G H I J K L M N O P Q R S T U V W X Y Z

Bury Tomorrow - An Honourable Reign tab

BURY TOMORROW

AN HONOURABLE REIGN

B-F#-B-E-G#-C#


TABBED BY andherembrace



1
--------------------------------------------------|
--------------------------------------------------|
-14-14-14-14-14-17-17-16-16-12-12-12-12-12-12-12--|
--X--X--X--X--X--X--X--X--X--X--X--X--X--X--X--X--|
-12-12-12-12-12-15-15-14-14-10-10-10-10-10-10-10--|
--------------------------------------------------|
2
--------------------------------------------------|
--------------------------------------------------|
--------------------------------------------------|
-3--3--3--3--3--3--3--0--0--0--0--0--0--0--0--0---|
-3--3--3--3--3--3--3--0--0--0--0--0--0--0--0--0---|
-3--3--3--3--3--3--3--0--0--0--0--0--0--0--0--0---|

1
---------------------------------------------------|
---------------------------------------------------|
-14-14-14-14-14-17-17-16-16-21-21-19-19-19-19-19---|
--X--X--X--X--X--X--X--X--X--X--X--X--X--X--X--X---|
-12-12-12-12-12-15-15-14-14-19-19-17-17-17-17-17---|
---------------------------------------------------|
2
---------------------------------------------------|
---------------------------------------------------|
---------------------------------------------------|
-7--7--7--7--7--7--7--5--5--5--5--5--5--5--5--5----|
-7--7--7--7--7--7--7--5--5--5--5--5--5--5--5--5----|
-7--7--7--7--7--7--7--5--5--5--5--5--5--5--5--5----|


1
--------------------------------------------------|
--------------------------------------------------|
-14-14-14-14-14-17-17-16-16-12-12-12-12-12-12-12--|
--X--X--X--X--X--X--X--X--X--X--X--X--X--X--X--X--|
-12-12-12-12-12-15-15-14-14-10-10-10-10-10-10-10--|
--------------------------------------------------|
2
--------------------------------------------------|
--------------------------------------------------|
--------------------------------------------------|
-3--3--3--3--3--3--3--0--0--0--0--0--0--0--0--0---|
-3--3--3--3--3--3--3--0--0--0--0--0--0--0--0--0---|
-3--3--3--3--3--3--3--0--0--0--0--0--0--0--0--0---|


1
---------------------------------------------------|
---------------------------------------------------|
-14-14-14-14-14-17-17-16-16-17-17-17-17-17-17-17---|
--X--X--X--X--X--X--X--X--X--X--X--X--X--X--X--X---|
-12-12-12-12-12-15-15-14-14-15-15-15-15-15-15-15---|
---------------------------------------------------|
2
---------------------------------------------------|
---------------------------------------------------|
---------------------------------------------------|
-7--7--7--7--7--7--7--5--5--5--5--5--5--5--5--5----|
-7--7--7--7--7--7--7--5--5--5--5--5--5--5--5--5----|
-7--7--7--7--7--7--7--5--5--5--5--5--5--5--5--5----|





1
--------------------------------------------------|
--------------------------------------------------|
-14-14-14-14-14-17-17-16-16-12-12-12-12-12-12-12--|
--X--X--X--X--X--X--X--X--X--X--X--X--X--X--X--X--|
-12-12-12-12-12-15-15-14-14-10-10-10-10-10-10-10--|
--------------------------------------------------|
2
--------------------------------------------------|
--------------------------------------------------|
--------------------------------------------------|
-3--3--3--3--3--3--3--0--0--0--0--0--0--0--0--0---|
-3--3--3--3--3--3--3--0--0--0--0--0--0--0--0--0---|
-3--3--3--3--3--3--3--0--0--0--0--0--0--0--0--0---|

1
---------------------------------------------------|
---------------------------------------------------|
-14-14-14-14-14-17-17-16-16-21-21-19-19-19-19-19---|
--X--X--X--X--X--X--X--X--X--X--X--X--X--X--X--X---|
-12-12-12-12-12-15-15-14-14-19-19-17-17-17-17-17---|
---------------------------------------------------|
2
---------------------------------------------------|
---------------------------------------------------|
---------------------------------------------------|
-7--7--7--7--7--7--7--5--5--5--5--5--5--5--5--5----|
-7--7--7--7--7--7--7--5--5--5--5--5--5--5--5--5----|
-7--7--7--7--7--7--7--5--5--5--5--5--5--5--5--5----|


1
--------------------------------------------------|
--------------------------------------------------|
-12-14-14-14-14-17-17-16-16-12-12-12-12-12-12-12--|
--X--X--X--X--X--X--X--X--X--X--X--X--X--X--X--X--|
-10/12-12-12-12-15-15-14-14-10-10-10-10-10-10-10--|
--------------------------------------------------|
2
--------------------------------------------------|
--------------------------------------------------|
--------------------------------------------------|
-3--3--3--3--3--3--3--0--0--0--0--0--0--0--0--0---|
-3--3--3--3--3--3--3--0--0--0--0--0--0--0--0--0---|
-3--3--3--3--3--3--3--0--0--0--0--0--0--0--0--0---|


1
---------------------------------------------------|
---------------------------------------------------|
-12-14-14-14-14-17-17-16-16-17-17-17-17-17-17-17---|
--X--X--X--X--X--X--X--X--X--X--X--X--X--X--X--X---|
-10/12-12-12-12-15-15-14-14-15-15-15-15-15-15-15---|
---------------------------------------------------|
2
---------------------------------------------------|
---------------------------------------------------|
---------------------------------------------------|
-7--7--7--7--7--7--7--5--5--5--5--5--5--5--5--5----|
-7--7--7--7--7--7--7--5--5--5--5--5--5--5--5--5----|
-7--7--7--7--7--7--7--5--5--5--5--5--5--5--5--5----|




0:29



    ___      ___      ___      ___      ___      ___      ___      ___
1  /   \    /   \    /   \    /   \    /   \    /   \    /   \    /   \
-12-8-7-5-12-8-7-5-12-8-7-5-12-8-7-5-12-8-7-5-12-8-7-5-12-8-7-5-12-8-7-5-|
-------------------------------------------------------------------------|
-------------------------------------------------------------------------|
-------------------------------------------------------------------------|
-------------------------------------------------------------------------|
-------------------------------------------------------------------------|
 T         T        T        T        T        T        T        T
2
-------------------------------------------------------------------------|
-------------------------------------------------------------------------|
-------------------------------------------------------------------------|
-3---------------------3-----------0-------------------------------------|
-3-----------------3---3---3---3---0---------0---0--------0---0----0-----|
-3-----------------3---3---3---3---0---------0---0--------0---0----0-----|
                   *       *   *             *   *        *   *    *


    ___      ___      ___      ___      ___      ___      ___      ___
1  /   \    /   \    /   \    /   \    /   \    /   \    /   \    /   \
-15-8-7-5-15-8-7-5-15-8-7-5-15-8-7-5-17-8-7-5-17-8-7-5-12-8-7-5-12-8-7-5-|
-------------------------------------------------------------------------|
-------------------------------------------------------------------------|
-------------------------------------------------------------------------|
-------------------------------------------------------------------------|
-------------------------------------------------------------------------|
 T         T        T        T        T        T        T        T
2
-------------------------------------------------------------------------|
-------------------------------------------------------------------------|
-------------------------------------------------------------------------|
-7---------------------7-----------5-------------------------------------|
-7-----------------7---7---7---7---5---------5---5--------2---2----------|
-7-----------------7---7---7---7---5---------5---5--------2---2----------|
                   *       *   *             *   *        *   *    



0:36

1  __________       __________
--/          \-----/          \------__________-------__________------|
1315131513151315-1213121312131213---/          \-----/          \-----|
----------------------------------1416141614161416-1214121412141214---|
----------------------------------------------------------------------|
----------------------------------------------------------------------|
----------------------------------------------------------------------|
2
----------------------------------------------------------------------|
----------------------------------------------------------------------|
----------------------------------------------------------------------|
-3---------------------3-----------0----------------------------------|
-3-----------------3---3---3---3---0---------0---0--------0---0----0--|
-3-----------------3---3---3---3---0---------0---0--------0---0----0--|
                   *       *   *             *   *        *   *    *


1
-15---------------------15--------------------------------------------|
------13----12----13--------------------------------------------------|
-----------------------------14~~~~-----------------------------------|
----------------------------------------------------------------------|
----------------------------------------------------------------------|
----------------------------------------------------------------------|
2
----------------------------------------------------------------------|
----------------------------------------------------------------------|
----------------------------------------------------------------------|
-7---------------------7-----------5----------------------------------|
-7-----------------7---7---7---7---5---------5---5--------2---2-------|
-7-----------------7---7---7---7---5---------5---5--------2---2-------|
                   *       *   *             *   *        *   *    





0:43

L                    B 
---------------------------------------------------|
--------------------------------------------___----|
------------------------___---------___----/   \---|
---10-10---9-----------/   \-------/   \--2-3-2-0--|
---------------10-10--2-3-2-0-----2-3-2-0----------|
-7-------7---7----------------3~-------------------|
 *       *   *


-----------------------------------------------------------------------|
-----------------------------------------------------------------------|
---------------------------------------------------___--------___------|
---10-10---9-------------------------------5------/   \------/   \-----|
---------------10-10---5---7---2-3-2---5-------7-2-3-2-0----2-3-2-0----|
-7-------7---7-------5---5---5-------3---3---3-----------3~---------5~-|
 *       *   *       *   *   *       *   *   *

----------------------------------------------------------------------------|
----------------------------------------------------------------------___---|
---------------------------------------------------___--------___----/   \--|
---10-10---9-------------------------------5------/   \------/   \--2-3-2-0-|
---------------10-10---5---7---2-3-2---5-------7-2-3-2-0----2-3-2-0---------|
-7-------7---7-------5---5---5-------3---3---3-----------3~-----------------|
 *       *   *       *   *   *       *   *   *

-----------------------------------------------------------------------|
-----------------------------------------------------------------------|
---------------------------------------------------___--------___------|
---10-10---9-------------------------------5------/   \------/   \-----|
---------------10-10---5---7---2-3-2---5-------7-2-3-2-0----2-3-2-0----|
-7-------7---7-------5---5---5-------3---3---3-----------3~---------5~-|
 *       *   *       *   *   *       *   *   *

--------------------------------------------------|
--------------------------------------------------|
--------------------------------------------------|
---10-10---9-------------------------------5------|
---------------10-10---5---7---2-3-2---5-------7--|
-7-------7---7-------5---5---5-------3---3---3----|
 *       *   *       *   *   *       *   *   *





1;08


---------------------------------------------------------------|
---------------------------------------------------------------|
---------------------------------------------------------------|
-----------------------10--------------------------------------|
------------------12------12------------------------000---000--|
-0-000-0-0-0----8----8-------2-3~-000-0-0-0-00-0--0-000---000--|
   ***       |                    ***       ** *    ***   ***

---------------------------------------------------------------|
---------------------------------------------------------------|
---------------------------------------------------------------|
-----------------------10--------------------------------------|
------------------12------12------------------------000---0-00-|
-0-000-0-0-0----8----8-------2-3~-000-0-0-0-00-0--0-000---0-00-|
   ***       |                    ***       ** *    ***   * **




1:22

1
--------------------------------------------------|
--------------------------------------------------|
-14-14-14-14-14-17-17-16-16-12-12-12-12-12-12-12--|
--X--X--X--X--X--X--X--X--X--X--X--X--X--X--X--X--|
-12-12-12-12-12-15-15-14-14-10-10-10-10-10-10-10--|
--------------------------------------------------|
2
--------------------------------------------------|
--------------------------------------------------|
--------------------------------------------------|
-3--3--3--3--3--3--3--0--0--0--0--0--0--0--0--0---|
-3--3--3--3--3--3--3--0--0--0--0--0--0--0--0--0---|
-3--3--3--3--3--3--3--0--0--0--0--0--0--0--0--0---|

1
---------------------------------------------------|
---------------------------------------------------|
-14-14-14-14-14-17-17-16-16-21-21-19-19-19-19-19---|
--X--X--X--X--X--X--X--X--X--X--X--X--X--X--X--X---|
-12-12-12-12-12-15-15-14-14-19-19-17-17-17-17-17---|
---------------------------------------------------|
2
---------------------------------------------------|
---------------------------------------------------|
---------------------------------------------------|
-7--7--7--7--7--7--7--5--5--5--5--5--5--5--5--5----|
-7--7--7--7--7--7--7--5--5--5--5--5--5--5--5--5----|
-7--7--7--7--7--7--7--5--5--5--5--5--5--5--5--5----|


1
--------------------------------------------------|
--------------------------------------------------|
-14-14-14-14-14-17-17-16-16-12-12-12-12-12-12-12--|
--X--X--X--X--X--X--X--X--X--X--X--X--X--X--X--X--|
-12-12-12-12-12-15-15-14-14-10-10-10-10-10-10-10--|
--------------------------------------------------|
2
--------------------------------------------------|
--------------------------------------------------|
--------------------------------------------------|
-3--3--3--3--3--3--3--0--0--0--0--0--0--0--0--0---|
-3--3--3--3--3--3--3--0--0--0--0--0--0--0--0--0---|
-3--3--3--3--3--3--3--0--0--0--0--0--0--0--0--0---|


1
---------------------------------------------------|
---------------------------------------------------|
-14-14-14-14-14-17-17-16-16-17-17-17-17-17-17-17---|
--X--X--X--X--X--X--X--X--X--X--X--X--X--X--X--X---|
-12-12-12-12-12-15-15-14-14-15-15-15-15-15-15-15---|
---------------------------------------------------|
2
---------------------------------------------------|
---------------------------------------------------|
---------------------------------------------------|
-7--7--7--7--7--7--7--5--5--5--5--5--5--5--5--5----|
-7--7--7--7--7--7--7--5--5--5--5--5--5--5--5--5----|
-7--7--7--7--7--7--7--5--5--5--5--5--5--5--5--5----|





1
--------------------------------------------------|
--------------------------------------------------|
-14-14-14-14-14-17-17-16-16-12-12-12-12-12-12-12--|
--X--X--X--X--X--X--X--X--X--X--X--X--X--X--X--X--|
-12-12-12-12-12-15-15-14-14-10-10-10-10-10-10-10--|
--------------------------------------------------|
2
--------------------------------------------------|
--------------------------------------------------|
--------------------------------------------------|
-3--3--3--3--3--3--3--0--0--0--0--0--0--0--0--0---|
-3--3--3--3--3--3--3--0--0--0--0--0--0--0--0--0---|
-3--3--3--3--3--3--3--0--0--0--0--0--0--0--0--0---|

1
---------------------------------------------------|
---------------------------------------------------|
-14-14-14-14-14-17-17-16-16-21-21-19-19-19-19-19---|
--X--X--X--X--X--X--X--X--X--X--X--X--X--X--X--X---|
-12-12-12-12-12-15-15-14-14-19-19-17-17-17-17-17---|
---------------------------------------------------|
2
---------------------------------------------------|
---------------------------------------------------|
---------------------------------------------------|
-7--7--7--7--7--7--7--5--5--5--5--5--5--5--5--5----|
-7--7--7--7--7--7--7--5--5--5--5--5--5--5--5--5----|
-7--7--7--7--7--7--7--5--5--5--5--5--5--5--5--5----|


1
--------------------------------------------------|
--------------------------------------------------|
-12-14-14-14-14-17-17-16-16-12-12-12-12-12-12-12--|
--X--X--X--X--X--X--X--X--X--X--X--X--X--X--X--X--|
-10/12-12-12-12-15-15-14-14-10-10-10-10-10-10-10--|
--------------------------------------------------|
2
--------------------------------------------------|
--------------------------------------------------|
--------------------------------------------------|
-3--3--3--3--3--3--3--0--0--0--0--0--0--0--0--0---|
-3--3--3--3--3--3--3--0--0--0--0--0--0--0--0--0---|
-3--3--3--3--3--3--3--0--0--0--0--0--0--0--0--0---|


1
---------------------------------------------------|
---------------------------------------------------|
-12-14-14-14-14-17-17-16-16-17-17-17-17-17-17-17---|
--X--X--X--X--X--X--X--X--X--X--X--X--X--X--X--X---|
-10/12-12-12-12-15-15-14-14-15-15-15-15-15-15-15---|
---------------------------------------------------|
2
---------------------------------------------------|
---------------------------------------------------|
---------------------------------------------------|
-7--7--7--7--7--7--7--5--5--5--5--5--5--5--5--5----|
-7--7--7--7--7--7--7--5--5--5--5--5--5--5--5--5----|
-7--7--7--7--7--7--7--5--5--5--5--5--5--5--5--5----|




1:50


----------------------------------------------------------|
----------------------------------------------------------|
----------------------------------------------------------|
-3---------------------3-----------0----------------------|
-3-----------------3---3---3---3---0---------0---0--------|
-3-----------------3---3---3---3---0---------0---0--------|
                   *       *   *             *   *        

----------------------------------------------------------|
----------------------------------------------------------|
----------------------------------------------------------|
-7---------------------7-----------5----------------------|
-7-----------------7---7---7---7---5---------2---2--------|
-7-----------------7---7---7---7---5---------2---2--------|
                   *       *   *             *   * 

----------------------------------------------------------|
----------------------------------------------------------|
----------------------------------------------------------|
-3---------------------3-----------0----------------------|
-3-----------------3---3---3---3---0---------0---0--------|
-3-----------------3---3---3---3---0---------0---0--------|
                   *       *   *             *   *        

----------------------------------------------------------|
----------------------------------------------------------|
----------------------------------------------------------|
-7---------------------7-----------5----------------------|
-7-----------------7---7---7---7---5---------2---2--------|
-7-----------------7---7---7---7---5---------2---2--------|
                   *       *   *             *   * 




1
-----------------12---------------12-------------------12------|
---------10---------------10-------------------10--------------|
-12-------------------12---------------12----------------------|
---------------------------------------------------------------|
---------------------------------------------------------------|
---------------------------------------------------------------|
2
----------------------------------------------------------|
----------------------------------------------------------|
----------------------------------------------------------|
-3----------------------3-----------0---------------------|
-3--------------3---3---3---3---3---0---------0---0-------|
-3--------------3---3---3---3---3---0---------0---0-------|
                *   *       *   *             *   *       

1
-----------------12---------------12-------------------12------|
---------10---------------10-------------------10--------------|
-12-------------------12---------------12----------------------|
---------------------------------------------------------------|
---------------------------------------------------------------|
---------------------------------------------------------------|
2
----------------------------------------------------------|
----------------------------------------------------------|
----------------------------------------------------------|
-7----------------------7-----------5---------------------|
-7--------------7---7---7---7---7---5---------2---2-------|
-7--------------7---7---7---7---7---5---------2---2-------|
                *   *       *   *             *   * 




1
-----------------12---------------12-------------------12------|
---------10---------------10-------------------10--------------|
-12-------------------12---------------12----------------------|
---------------------------------------------------------------|
---------------------------------------------------------------|
---------------------------------------------------------------|
2
----------------------------------------------------------|
----------------------------------------------------------|
----------------------------------------------------------|
-3----------------------3-----------0---------------------|
-3--------------3---3---3---3---3---0---------0---0-------|
-3--------------3---3---3---3---3---0---------0---0-------|
                *   *       *   *             *   *       

1
-----------------12---------------12-------------------12------|
---------10---------------10-------------------10--------------|
-12-------------------12---------------12----------------------|
---------------------------------------------------------------|
---------------------------------------------------------------|
---------------------------------------------------------------|
2
------------------------------------------------------------|
------------------------------------------------------------|
------------------------------------------------------------|
-7----------------------7-----------5-----------------------|
-7--------------7---7---7---7---7---5---------2---2---2---2-|
-7--------------7---7---7---7---7---5---------2---2---2---2-|
                *   *       *   *             *   *   *   *




2:17


------------------------------------------------------------|
------------------------------------------------------------|
------------------------------------------------------------|
-0--------------------------0-------------------------------|
-0--------------------------0-0-0-0-0-0-0-0---0---0---0---0-|
-0--------------------------0-0-0-0-0-0-0-0---0---0---0---0-|
                              * * * * * * *   *   *   *   *

--------------------------------------------------|
--------------------------------------------------|
--------------------------------------------------|
-0--------------------------0---------------------|
-0--------------------------0-0-0-0-0-0-0-0---0---|
-0--------------------------0-0-0-0-0-0-0-0---0---|
                              * * * * * * *   *  



2:31

----------------------------------------------------------------|
----------------------------------------------------------------|
----------------------------------------------------------------|
-0-----------------0--------------0-----------------0-----0-----|
-0--0---0---0------0--0---0----0--0--0---0---0------0--0--0--0--|
----0---0---0---------0---0----0-----0---0---0---------0-----0--|
 U  *   *   *      U  *   * |  *  U  *   *   *      U  *  U  *

                                                   L     R
----------------------------------------------------------------|
----------------------------------------------------------------|
----------------------------------------------------------------|
-0-----------------0--------------0-----------------------------|
-0--0---0---0------0--0---0----0--0--0---0---0------0-0---0-0-0-|
----0---0---0---------0---0----0-----0---0---0------0-0---0-0-0-|
 U  *   *   *      U  *   * |  *  U  *   *   *      * *   * * *


----------------------------------------------------------------|
----------------------------------------------------------------|
----------------------------------------------------------------|
-0-----------------0--------------0-----------------0-----0-----|
-0--0---0---0------0--0---0----0--0--0---0---0------0--0--0--0--|
----0---0---0---------0---0----0-----0---0---0---------0-----0--|
 U  *   *   *      U  *   * |  *  U  *   *   *      U  *  U  *


-----------------------------------------------------------------|
-----------------------------------------------------------------|
-----------------------------------------------------------------|
-0-----------------0--------------0-----------------0------------|
-0--0---0---0------0--0---0----0--0--0---0---0------0--0---0-0-0-|
----0---0---0---------0---0----0-----0---0---0---------0---0-0-0-|
 U  *   *   *      U  *   * |  *  U  *   *   *      U  *   * * *





2:58

1
--------------------------------------------------|
--------------------------------------------------|
-14-14-14-14-14-17-17-16-16-12-12-12-12-12-12-12--|
--X--X--X--X--X--X--X--X--X--X--X--X--X--X--X--X--|
-12-12-12-12-12-15-15-14-14-10-10-10-10-10-10-10--|
--------------------------------------------------|
2
--------------------------------------------------|
--------------------------------------------------|
--------------------------------------------------|
-3--3--3--3--3--3--3--0--0--0--0--0--0--0--0--0---|
-3--3--3--3--3--3--3--0--0--0--0--0--0--0--0--0---|
-3--3--3--3--3--3--3--0--0--0--0--0--0--0--0--0---|

1
---------------------------------------------------|
---------------------------------------------------|
-14-14-14-14-14-17-17-16-16-21-21-19-19-19-19-19---|
--X--X--X--X--X--X--X--X--X--X--X--X--X--X--X--X---|
-12-12-12-12-12-15-15-14-14-19-19-17-17-17-17-17---|
---------------------------------------------------|
2
---------------------------------------------------|
---------------------------------------------------|
---------------------------------------------------|
-7--7--7--7--7--7--7--5--5--5--5--5--5--5--5--5----|
-7--7--7--7--7--7--7--5--5--5--5--5--5--5--5--5----|
-7--7--7--7--7--7--7--5--5--5--5--5--5--5--5--5----|


1
--------------------------------------------------|
--------------------------------------------------|
-14-14-14-14-14-17-17-16-16-12-12-12-12-12-12-12--|
--X--X--X--X--X--X--X--X--X--X--X--X--X--X--X--X--|
-12-12-12-12-12-15-15-14-14-10-10-10-10-10-10-10--|
--------------------------------------------------|
2
--------------------------------------------------|
--------------------------------------------------|
--------------------------------------------------|
-3--3--3--3--3--3--3--0--0--0--0--0--0--0--0--0---|
-3--3--3--3--3--3--3--0--0--0--0--0--0--0--0--0---|
-3--3--3--3--3--3--3--0--0--0--0--0--0--0--0--0---|


1
---------------------------------------------------|
---------------------------------------------------|
-14-14-14-14-14-17-17-16-16-17-17-17-17-17-17-17---|
--X--X--X--X--X--X--X--X--X--X--X--X--X--X--X--X---|
-12-12-12-12-12-15-15-14-14-15-15-15-15-15-15-15---|
---------------------------------------------------|
2
---------------------------------------------------|
---------------------------------------------------|
---------------------------------------------------|
-7--7--7--7--7--7--7--5--5--5--5--5--5--5--5--5----|
-7--7--7--7--7--7--7--5--5--5--5--5--5--5--5--5----|
-7--7--7--7--7--7--7--5--5--5--5--5--5--5--5--5----|





1
--------------------------------------------------|
--------------------------------------------------|
-14-14-14-14-14-17-17-16-16-12-12-12-12-12-12-12--|
--X--X--X--X--X--X--X--X--X--X--X--X--X--X--X--X--|
-12-12-12-12-12-15-15-14-14-10-10-10-10-10-10-10--|
--------------------------------------------------|
2
--------------------------------------------------|
--------------------------------------------------|
--------------------------------------------------|
-3--3--3--3--3--3--3--0--0--0--0--0--0--0--0--0---|
-3--3--3--3--3--3--3--0--0--0--0--0--0--0--0--0---|
-3--3--3--3--3--3--3--0--0--0--0--0--0--0--0--0---|

1
---------------------------------------------------|
---------------------------------------------------|
-14-14-14-14-14-17-17-16-16-21-21-19-19-19-19-19---|
--X--X--X--X--X--X--X--X--X--X--X--X--X--X--X--X---|
-12-12-12-12-12-15-15-14-14-19-19-17-17-17-17-17---|
---------------------------------------------------|
2
---------------------------------------------------|
---------------------------------------------------|
---------------------------------------------------|
-7--7--7--7--7--7--7--5--5--5--5--5--5--5--5--5----|
-7--7--7--7--7--7--7--5--5--5--5--5--5--5--5--5----|
-7--7--7--7--7--7--7--5--5--5--5--5--5--5--5--5----|


1
--------------------------------------------------|
--------------------------------------------------|
-12-14-14-14-14-17-17-16-16-12-12-12-12-12-12-12--|
--X--X--X--X--X--X--X--X--X--X--X--X--X--X--X--X--|
-10/12-12-12-12-15-15-14-14-10-10-10-10-10-10-10--|
--------------------------------------------------|
2
--------------------------------------------------|
--------------------------------------------------|
--------------------------------------------------|
-3--3--3--3--3--3--3--0--0--0--0--0--0--0--0--0---|
-3--3--3--3--3--3--3--0--0--0--0--0--0--0--0--0---|
-3--3--3--3--3--3--3--0--0--0--0--0--0--0--0--0---|


1
---------------------------------------------------|
---------------------------------------------------|
-12-14-14-14-14-17-17-16-16-17-17-17-17-17-17-17---|
--X--X--X--X--X--X--X--X--X--X--X--X--X--X--X--X---|
-10/12-12-12-12-15-15-14-14-15-15-15-15-15-15-15---|
---------------------------------------------------|
2
---------------------------------------------------|
---------------------------------------------------|
---------------------------------------------------|
-7--7--7--7--7--7--7--5--5--5--5--5--5--5--5--5----|
-7--7--7--7--7--7--7--5--5--5--5--5--5--5--5--5----|
-7--7--7--7--7--7--7--5--5--5--5--5--5--5--5--5----|






3:25

-------------------------------------------|
-------------------------------------------|
-------------------------------------------|
-3-----------5----------P------------------|
-3-----------5-----------S\----------------|
-3-----------5-----------------------------|




-----------------------------------------------------------------------|
-----------------------------------------------------------------------|
---------------------------------------------------___--------___------|
---10-10---9-------------------------------5------/   \------/   \-----|
---------------10-10---5---7---2-3-2---5-------7-2-3-2-0----2-3-2-0----|
-7-------7---7-------5---5---5-------3---3---3-----------3~---------5~-|
 *       *   *       *   *   *       *   *   *

----------------------------------------------------------------------------|
----------------------------------------------------------------------___---|
---------------------------------------------------___--------___----/   \--|
---10-10---9-------------------------------5------/   \------/   \--2-3-2-0-|
---------------10-10---5---7---2-3-2---5-------7-2-3-2-0----2-3-2-0---------|
-7-------7---7-------5---5---5-------3---3---3-----------3~-----------------|
 *       *   *       *   *   *       *   *   *

-----------------------------------------------------------------------|
-----------------------------------------------------------------------|
---------------------------------------------------___--------___------|
---10-10---9-------------------------------5------/   \------/   \-----|
---------------10-10---5---7---2-3-2---5-------7-2-3-2-0----2-3-2-0----|
-7-------7---7-------5---5---5-------3---3---3-----------3~---------5~-|
 *       *   *       *   *   *       *   *   *

----------------------------------------------------------------------------|
----------------------------------------------------------------------___---|
---------------------------------------------------___--------___----/   \--|
---10-10---9-------------------------------5------/   \------/   \--2-3-2-0-|
---------------10-10---5---7---2-3-2---5-------7-2-3-2-0----2-3-2-0---------|
-7-------7---7-------5---5---5-------3---3---3-----------3~-----------------|
 *       *   *       *   *   *       *   *   *


L
---------------------------------------|
----------------------___--------------|
---___--------___----/   \-------------|
--/   \------/   \--2-3-2-0--10--------|
-2-3-2-0----2-3-2-0-----------7--------|
---------5~-------------------7--------|

R
---------------------------------------|
----------------------___--------------|
---___--------___----/   \-------------|
--/   \------/   \--5-7-5-0--10--------|
-5-7-5-0----5-7-5-0-----------7--------|
---------5~-------------------7--------|
Tap to rate this tab
# A B C D E F G H I J K L M N O P Q R S T U V W X Y Z