Song name
# A B C D E F G H I J K L M N O P Q R S T U V W X Y Z

Bury Your Dead - Top Gun tab

alright. so this is my first tab.
i checked out the tab for this song that was on the site
and found that it was inaccurate.
so i figured it out myself, and here i am.

heres a video of me playing this song, if you want something to follow along with:
http://www.youtube.com/watch?v=g609PlU_6IM

Tuning-
drop A#

|-------------------------|
|-------------------------|
|-------------------------|
|--------0----------------|
|--------0----------------|
|000000000--------6540423-|
 ........

Riff I-
its kinda hard to write out the strumming. if it seems off, then you could prob figure
out by listening to the song.
|--------------------------------|
|--------------------------------|
|--------------------------------|
|0-0-6541-11-4234-44-4444-44-321-|
|0-0-6541-11-4234-44-4444-44-321-|
|0-0-6541-11-4234-44-4444-44-321-|

|--------------------------------|
|--------------------------------|
|--------------------------------|
|0-0-6541-11-4234-0000-00000-321-|
|0-0-6541-11-4234-0000-00000-321-|
|0-0-6541-11-4234-0000-00000-321-|


Riff II-
|----------------------------------------------------|
|----------------------------------------------------|
|----------------------------------------------------|
|--------00000-0000---0--------00000-0000-3213-------|
|--------00000-0000---0--------00000-0000-3213-------|
|--------00000-00006\00--------00000-0000-32134~~3~~-|
 drum solo             drum solo

Riff III
|-----------------------------------------------------------------|
|-----------------------------------------------------------------|
|-----------------------------------------------------------------|
|---------------------------------------------------------8-8-7-7-|
|---------------------------------------------------------8-8-8-8-|
|00-00-000-00-00-00-00-000-00-00-00-00-000-00-00-00-00-0008-8-7-7-|

Riff IV-
|------------------|
|------------------|
|------------------|
|------------------|
|------------------|
|00-00-00000-00-00-|
 .. .. ..... .. ..

Riff I-
|--------------------------------|
|--------------------------------|
|--------------------------------|
|0-0-6541-11-4234-44-4444-44-321-|
|0-0-6541-11-4234-44-4444-44-321-|
|0-0-6541-11-4234-44-4444-44-321-|

|--------------------------------|
|--------------------------------|
|--------------------------------|
|0-0-6541-11-4234-0000-00000-321-|
|0-0-6541-11-4234-0000-00000-321-|
|0-0-6541-11-4234-0000-00000-321-|

Pre-Breakdown-
|---------------------------|
|---------------------------|
|---------------------------|
|--------0----------------0-|
|--------0----------------0-|
|000000000--------000000000-|
 ........         ........

Breadkdown-
|-------------------------------|
|-------------------------------|
|-------------------------------|
|--------0------0---0---------0-|
|--------0------0---0---------0-|
|000000000----000-000-000000000-|

|--------------------------------------|
|--------------------------------------|
|--------------------------------------|
|--------0------0---0---------0--------|
|--------0------0---0---------0--------|
|000000000----000-000-000000000--2-3-2-|

Riff III
|-----------------------------------------------------------------|
|-----------------------------------------------------------------|
|-----------------------------------------------------------------|
|---------------------------------------------------------8-8-7-7-|
|---------------------------------------------------------8-8-8-8-|
|00-00-000-00-00-00-00-000-00-00-00-00-000-00-00-00-00-0008-8-7-7-|

Riff IV-
|------------------|
|------------------|
|------------------|
|------------------|
|------------------|
|00-00-00000-00-00-|
 .. .. ..... .. ..

|-----------------|
|-----------------|
|-----------------|
|-----------------|
|-----------------|
|00~00~00000~00~00
 .. .. ..... .. ..

Outro-
|----------|
|----------|
|----------|
|--------0-|
|--------0-|
|000000000
 ........

and so thats it.
the entire song goes in that order.
so yeah. it should be accurate. i thought it was while playin it.
Tap to rate this tab
 
# A B C D E F G H I J K L M N O P Q R S T U V W X Y Z