Song name
# A B C D E F G H I J K L M N O P Q R S T U V W X Y Z

Bury Your Dead - Broken Body tab

My Very 1st Tab,
Still Trying To Figure Out the Whole Song.
Any Idea's On Some Parts of The Song,
Let Me Know, I'll Arrange Stuff Around.
I Need As Much Help As I Can, Because Im Also The 1st Person -
To Tab This Song Out.
________________________________
Band: "Bury Your Dead"
Album: "It's Nothing Personal"
Track: 03

Played In A# (Or Bb).
A# F A# D# G#  C

____________________________________________________________________________




*Intro*

Guitar 1
0:01 - 0:06

C |----------------------------------------------------------|
G#|----------------------------------------------------------|
D#|----------------------------------------------------------|
A#|----------------------------------------------------------|
F |----------------------------------------------------------|
A#|-0h5h6-0h5h6--0-0-12-0-9-0-12-0-9-12--0h5h6-0h5h6-0-0-9-12|

 C |----------------------|
 G#|----------------------|      (Guitar 2 Comes In)
 D#|----------------------|         0:07 - 0:13
 A#|----------------------|        *Repeat Intro*
 F |---(12's)-------------|
 A#|121212121212----------|
     ^^^^^^^^^^^
Strum 6x's____/


 






    *Verse 1*
   0:14 - 0:20
C |--------------------------------|
G#|--------------------------------|
D#|--------------------------------|
A#|---0h5h6-0h5-00-00-00-00-00-00--| (x2)
F |---0h5h6-0h5-00-00-00-00-00-00--|
A#|---0h5h6-0h5-00-00-00-00-00-00--|
                ** ** ** ** ** **
  "Through The Sickness!"


0:21
C |------------|
G#|------------|
D#|---5-5-5-5--|
A#|---x-x-x-x--| (Quickly Jump Back Into The Verse)
F |---3-3-3-3--|
A#|------------|


 0:22 - 0:26
C |--------------------------------|
G#|--------------------------------|
D#|--------------------------------|
A#|---0h5h6-0h5-00-00-00-00-00-00--| 
F |---0h5h6-0h5-00-00-00-00-00-00--|
A#|---0h5h6-0h5-00-00-00-00-00-00--|
                ** ** ** ** ** **
"So Tired Of Feeling Worthless!"
                 "Like I Dont Exist!"


 0:26 - 0:29
C |---------------------------------------|
G#|---------------------------------------|
D#|-----------------------------5-5-5-5-5-|
A#|---0h5h6-0h5-00-00-00-00-0h5-x-x-x-x-x-|
F |---0h5h6-0h5-00-00-00-00-0h5-3-3-3-3-3-|
A#|---0h5h6-0h5-00-00-00-00-0h5-----------|
                ** ** ** **
"Keep My Head Up High! Try To Live My Life"
                             "That No One Notices"







 *Pre-Chorus*
 0:29 - 0:41

C |----------------------------------------------------------|
G#|----------------------------------------------------------|
D#|----------------------------------------------------------|
A#|----------------------------------------------------------|
F |----------------------------------------------------------|
A#|-0h5h6-0h5h6--0-0-12-0-9-0-12-0-9-12--0h5h6-0h5h6-0-0-9-12|

 C |----------------------|
 G#|----------------------|
 D#|----------------------|          (Repeat 2x)
 A#|----------------------|          (Like Intro)
 F |---(12's)-------------|
 A#|121212121212----------|







   0:42 - 0:49 
C |----------------------------------------|
G#|----------------------------------------|
D#|----------------------------------------|
A#|---0h5h6-0h5-00-00-00-00-00-00----------|
F |---0h5h6-0h5-00-00-00-00-00-00----------|
A#|---0h5h6-0h5-00-00-00-00-00-00----------|
                ** ** ** ** ** **
      "This Is Real Pain! These Are Real Tears!"

C |----------------------------------------|
G#|----------------------------------------|
D#|--------------------------5-5-5-5-------|
A#|---0h5h6-0h5-00-00-00-00--x-x-x-x-------|
F |---0h5h6-0h5-00-00-00-00--3-3-3-3-------|
A#|---0h5h6-0h5-00-00-00-00----------------|
                ** ** ** **


   0:50 - 0:56
C |----------------------------------------|
G#|----------------------------------------|
D#|----------------------------------------|
A#|---0h5h6-0h5-00-00-00-00-00-00----------|
F |---0h5h6-0h5-00-00-00-00-00-00----------|
A#|---0h5h6-0h5-00-00-00-00-00-00----------|
                ** ** ** ** ** **
      "Is This Whatchu Want?!"

C |----------------------------------------|
G#|----------------------------------------|
D#|--------------------------5-5-5-5-------|
A#|---0h5h6-0h5-00-00-00-00--x-x-x-x-------|
F |---0h5h6-0h5-00-00-00-00--3-3-3-3-------|
A#|---0h5h6-0h5-00-00-00-00----------------|
                ** ** ** **
  "Wanna See Me Fail?! You'll Never Get That Chance!"





*Chorus*

  0:57 - 1:25
C |----------------------------------------------------------|
G#|----------------------------------------------------------|
D#|----------------------------------------------------------|
A#|---11-11-11-11-11-11----6-6-6-6-6-6-6-6-6----4-4-4-4-4-4-4|
F |---11-11-11-11-11-11----6-6-6-6-6-6-6-6-6----4-4-4-4-4-4-4|
A#|---11-11-11-11-11-11----6-6-6-6-6-6-6-6-6----4-4-4-4-4-4-4|

C |----------------------------------------|
G#|----------------------------------------|
D#|----------------------------------------|
A#|--8-8-8-8-8-8-8-8-8-8-------------------|       (x2)
F |--8-8-8-8-8-8-8-8-8-8-------------------|
A#|--8-8-8-8-8-8-8-8-8-8-------------------|



Then Just Do Everything Over Again.
I'll Tab the Breakdown Later.
Tap to rate this tab
# A B C D E F G H I J K L M N O P Q R S T U V W X Y Z