Song name
# A B C D E F G H I J K L M N O P Q R S T U V W X Y Z

Bury Your Dead - Hurting Not Helping tab

----------------------------------------------------
Hurting Not Helping - Bury Your Dead
----------------------------------------------------
Tabbed by:metalmaniac88

I tabbed this in response to a request.
My First Tab. I Hope It's Good.
Let Me Know. Thanks.

Tuning: DropA AEADGbB
====================================================
| /   slide up
| \   slide down
| h   hammer-on
| p   pull-off
| ~   LET RING
| b^x Bend Up To Note (x)
| .   Palm Mute
====================================================


Intro (with phaser)
1.3.5.7.
 B|------------------------------------------------|
Gb|------------------------------------------------|
 D|------------------------------------------------| 
 A|------------------------------------------------|
 E|------------------------------------------------|
 A|0--0--0--0--10h13-0--10h13-0--0--0--0--0--0--0--|
   .  .  .  .        .        .  .  .  .  .  .  . 
2.4.6.
 B|------------------------------------------------|
Gb|------------------------------------------------|
 D|------------------------------------------------| 
 A|------------------------------------------------|
 E|------------------------------------------------|
 A|0--0--0--0--10h13-0--10h13-0--0--0--0--0--10h12-|
   .  .  .  .        .        .  .  .  .  .       
8. (with reverb?/far away sound)
 B|------------------------------------------------|
Gb|------------------------------------------------|
 D|------------------------------------------------| 
 A|------------------------------------------------|
 E|------------------------------------------------|
 A|0--0--0--0--10h13-0--10h13-0--0--0--0--0--10h12-|
   .  .  .  .        .        .  .  .  .  .       

Main (Rhythm)
1.3.5.7.
 B|------------------------------------------------|
Gb|------------------------------------------------|
 D|------------------------------------------------| 
 A|------------------------------------------------|
 E|------------10h13----10h13----------------------|
 A|0--0--0--0--10h13-0--10h13-0--0--0--0--0--0--0--|
   .  .  .  .        .        .  .  .  .  .  .  .  
2.4.6.8.
 B|------------------------------------------------|
Gb|------------------------------------------------|
 D|------------------------------------------------| 
 A|------------------------------------------------|
 E|------------10h13----10h13----------------10h12-|
 A|0--0--0--0--10h13-0--10h13-0--0--0--0--0--10h12-|
   .  .  .  .        .        .  .  .  .  .

Main (Lead) (With Phaser and Wah)
(Rest) 1.2.3.4.
5.6.7.8.
 B|------------------------------------------------|
Gb|------------------------------------------------|
 D|------------------------------------------------|
 A|7--7--7--7--7--7--7--7--7--7--7--7--7--7--7--7--|
 E|5--5--5--5--5--5--5--5--5--5--5--5--5--5--5--5--|
 A|------------------------------------------------|

Bridge 
1.3.
 B|------------------------------------------------|
Gb|------------------------------------------------|
 D|7-----7-----7-----7-----7-----10----10----10----| 
 A|7-----7-----7-----7-----7-----10----10----10----|
 E|5-----5-----5-----5-----5-----8-----8-----8-----|
 A|------------------------------------------------|
2.
 B|------------------------------------------------|
Gb|------------------------------------------------|
 D|10----10----10----10----10----10----10----10----|
 A|10----10----10----10----10----10----10----10----|
 E|8-----8-----8-----8-----8-----8-----8-----8-----|
 A|------------------------------------------------|
4.
 B|------------------------------------------------|
Gb|------------------------------------------------|
 D|10----5-----5-----5-----5-----5-----5-----5-----|
 A|10----5-----5-----5-----5-----5-----5-----5-----|
 E|8-----3-----3-----3-----3-----3-----3-----3-----|
 A|------------------------------------------------|

Verse
1.3.5.7.
 B|------------------------------------------------|
Gb|------------------------------------------------|
 D|------------------------------------------------| 
 A|------------------------------------------------|
 E|0-----0-----6-----0-----6-----0-----0-----6-----|
 A|0-----0-----6-----0-----6-----0-----0-----6-----|
   .     .           .           .     .
2.6.
 B|------------------------------------------------|
Gb|------------------------------------------------|
 D|------------------------------------------------| 
 A|------------------------------------------------|
 E|0-----0-----0-----0-----0-----0-----1--0--0-----|
 A|0-----0-----0-----0-----0-----0-----1--0--0-----|
   .     .     .     .     .     .     .  .  .
4.8.
 B|------------------------------------------------|
Gb|------------------------------------------------|
 D|------------------------------------------------| 
 A|------------------------------------------------|
 E|0-----0-----0-----0-----0--0--1-----0--0--3-----|
 A|0-----0-----0-----0-----0--0--1-----0--0--3-----|
   .     .     .     .     .  .        .  .    

Play Bridge
1.2.3.4.

Chorus (Rhythm) 
1.(5.)1II.(5.II)
 B|------------------------------------------------|
Gb|------------------------------------------------|
 D|------------------------------------------------| 
 A|------------------------------------------------|
 E|3(0)--3-----3-----3-----3-----3-----3-----3-----|
 A|3(0)--3-----3-----3-----3-----3-----3-----3-----|
2.6.2II.6II.
 B|------------------------------------------------|
Gb|------------------------------------------------|
 D|-----------------------------(3's on 6. & 6II.)-|
 A|------------------------------------------------| 
 E|3-----3-----3-----3-----3----(5)---(5)---(5)----|
 A|3-----3-----3-----3-----3----(5)---(5)---(5)----|
3.4.3II.4II.
 B|------------------------------------------------|
Gb|------------------------------------------------|
 D|------------------------------------------------| 
 A|------------------------------------------------|
 E|8-----0-----0-----0-----0-----0-----0-----0-----|
 A|8-----0-----0-----0-----0-----0-----0-----0-----|
4.4II.
 B|------------------------------------------------|
Gb|------------------------------------------------|
 D|------------------------------------------------| 
 A|------------------------------------------------|
 E|0-----0-----0-----0-----0-----0-----0-----0-----|
 A|0-----0-----0-----0-----0-----0-----0-----0-----|
7.8.7II.
 B|------------------------------------------------|
Gb|------------------------------------------------|
 D|------------------------------------------------| 
 A|------------------------------------------------|
 E|0--0--0--0--0--0-----0--0-----0--0-----0--0--0--|
 A|0--0--0--0--0--0-----0--0-----0--0-----0--0--0--|
   .  .  .  .  .  .     .  .     .  .     .  .  .
8II.
 B|------------------------------------------------|
Gb|------------------------------------------------|
 D|------------------------------------------------| 
 A|------------------------------------------------|
 E|0--0--0--0--0--0-----0--------------------------|
 A|0--0--0--0--0--0-----0--------------------------|
   .  .  .  .  .  .     .           

Chorus (Lead) (This Part I'm NOT 100% about..hard to hear..sorry)
1.5.
 B|------------------------------------------------|
Gb|------------------------------------------------|
 D|------------------------------------------------|
 A|12-/--15----0-----12-/--17----0-----14-/--15----|
 E|------------------------------------------------|
 A|------------------------------------------------| 
2.6.
 B|------------------------------------------------|
Gb|------------------------------------------------|
 D|------------------------------------------------|
 A|0-----14-/--17----0-----12-/--14----b^15r-12----|
 E|------------------------------------------------|
 A|------------------------------------------------|
3.
 B|------------------------------------------------|
Gb|------------------------------------------------|
 D|------------------------------------------------|
 A|15-/--17----0-----15-/--19----0-----17-/--19----|
 E|------------------------------------------------|
 A|------------------------------------------------|
4.
 B|------------------------------------------------|
Gb|------------------------------------------------|
 D|------------------------------------------------|
 A|0-----19-\--17----0-----12-/--14----b^15r-12----|
 E|------------------------------------------------|
 A|------------------------------------------------|
7.8. (Rest)

Play Main 1. - 4.(Without Lead Riff)

Play Verse

Play Bridge (With Chorus Lead Over Top)

Play Chorus

Breakdown
1.2.3.5.6.7.8.
 B|------------------------------------------------|
Gb|------------------------------------------------|
 D|------------------------------------------------| 
 A|------------------------------------------------|
 E|0--0--0--0--0--0-----0--0-----0--0-----0--0--0--|
 A|0--0--0--0--0--0-----0--0-----0--0-----0--0--0--|
   .  .  .  .  .  .     .  .     .  .     .  .  .
4.
 B|------------------------------------------------|
Gb|------------------------------------------------|
 D|------------------------------------------------| 
 A|------------------------------------------------|
 E|0--0--0--0--0--0-----0--0--6--6--6--6--6--6--6--|
 A|0--0--0--0--0--0-----0--0-----------------------|
   .  .  .  .  .  .     .  .  .  .  .  .  .  .  .

Rhythm Rest (4 Measures) / Lead Play Chorus 1.2.3.4.

Play Chorus
(1.2.3.4.)3x then 1.2.

(Rhythm) Play 1. of Intro Riff then this
 B|------------------------------------------------|
Gb|------------------------------------------------|
 D|------------------------------------------------| 
 A|------------------------------------------------|
 E|------------------------------------------------|
 A|0--0--0--0--10h13-0--10h13-0--10h12-------------|
   .  .  .  .        .        .    

While Lead Plays This
 B|------------------------------------------------|
Gb|------------------------------------------------|
 D|------------------------------------------------| 
 A|14 ~  b^15~ 14 ~  b^15~ 14 ~  b^15~ 14 ~  b^15~ |
 E|------------------------------------------------|
 A|------------------------------------------------|

 B|------------------------------------------------|
Gb|------------------------------------------------|
 D|------------------------------------------------| 
 A|14 ~  b^15~ 14 ~  b^15~ 14 ~  b^15~ ------------|
 E|------------------------------------------------|
 A|------------------------------------------------|

(Rhythm) Play Verse 1.2.3.4.5.6.7. then  Rest 1 Measure
(Lead) Play Main(Lead) Riff (with Phaser!)

End Breakdown (verse 1.2.3.4.5.6.7.) then
 B|------------------------------------------------|
Gb|------------------------------------------------|
 D|------------------------------------------------| 
 A|------------------------------------------------|
 E|0-----0-----0-----0-----0--0--13----0--0--10----|
 A|0-----0-----0-----0-----0--0--13----0--0--10----|
   .     .     .     .     .  .        .  .   
Tap to rate this tab
# A B C D E F G H I J K L M N O P Q R S T U V W X Y Z