Bury Your Dead - Without You tab

Song: Without You
Artist: Bury Your Dead
Album: It's Nothing Personal
Tuning: Drop B

This is a really good song and so far I've only figured the solo out, so if any one 
figure out the other parts please do.

            Solo  slide = /  bend = ~   h = hammer on      listen to the song to figure 
how long you hold the bends and others.

|---------------------------------------------------------------------------|
|-------------(slowly bend on 9)--------------------------------------------|
|---(slide)--/9~------------------------------------------------------------|
|-----------------7~---------5---7----9---10----12---14---9~h10-9~h10-9~----|
|-------------------------5-------------------------------------------------|
|---------------------------------------------------------------------------|

|-------------------------------------------------------------------------|
|-------------------------------------------------------------------------|
|---(slide)--/9----12~----------------------------------------------------|
|----------------------7~---5---7----9----10---12----14----9~h10-9~h10-9~-|
|-------------------------5-----------------------------------------------|
|-------------------------------------------------------------------------|
Tap to rate this tab
 
# A B C D E F G H I J K L M N O P Q R S T U V W X Y Z