Song name
# A B C D E F G H I J K L M N O P Q R S T U V W X Y Z

Bury Your Dead - Mission Impossible tab

Bury Your Dead
Cover Your Tracks
Mission:Impossible

Tabbed by: fttcrobert

Tuning: A# F A# D# G C


|---------------------------------|
|---------------------------------|
|---------------------------------|
|---------------------------------|
|---------------------------------|
|-0-0-000-1p0-000-4h5p4p0-4-3-(1)-|

|---|--------------------------------------|-17--------------15-------------|
|---|--------------------------------------|-19^20v19^20v19--17^19v17^19v17-|
|-8-|--------------------------------------|--------------------------------|
|-x-|--0~--0000000--0000000--0000000--0000-|--------------------------------|
|-6-|--0~--0000000--0000000--0000000--0000-|--------------------------------|
|---|--0~--0000000--0000000--0000000--0000-|--------------------------------|


|-------------------------------------------|
|-------------------------------------------|
|-------------------------------------------|
|-0~--0000000--00-00-00--0000000-00000--6/1-|
|-0~--0000000--00-00-00--0000000-00000--6/1-|
|-0~--0000000--00-00-00--0000000-00000--6/1-|


|----------------|----------------------------------------------------------|
|----------------|----------------------------------------------------------|
|----------------|----------------------------------------------------------|
|----------------|--1p0--000000--1p0--0-4-3-1p0-000000----------------------|
|---------5b-----|--1p0--000000--1p0--0-4-3-1p0-000000----------3-5---------|
|-1p0h1-3----1-3-|--1p0--000000--1p0--0-4-3-1p0-000000--6-5-3-0-----0-4-3-0-|


|-------------|--------------------------------------|
|-------------|--------------------------------------|
|-------------|--------------------------------------|
|-4-3-1-6-4-3-|-1-0000--3-0000--1-0000--4-3-1-6-4-3--|
|-4-3-1-6-4-3-|-1-0000--3-0000--1-0000--4-3-1-6-4-3--|
|-4-3-1-6-4-3-|-1-0000--3-0000--1-0000--4-3-1-6-4-3--|


|----------------------------------|
|----------------------------------|
|----------------------------------|
|----------------------------------|
|----------------------------------|
|-0-0-000-1p0-000-4h5p4p0-4-3-(1)--|


|------------------------|
|------------------------|
|------------------------|
|-000-1-00--0-1p0h4p0h3--|
|-000-1-00--0-1p0h4p0h3--|
|-000-1-00--0-1p0h4p0h3--|

End
Tap to rate this tab
 
# A B C D E F G H I J K L M N O P Q R S T U V W X Y Z