Song name
# A B C D E F G H I J K L M N O P Q R S T U V W X Y Z

Bury Your Dead - Losin It tab

Band: Bury Your Dead
Song: Losin' It
Album: Cover Your Tracks (2004 Victory Records)
Tuning: Drop-Bb (Lo to Hi: Bb F Bb Eb G C) - YES it is this low.
Trust me. I played along with other tunings and Bb is right.
Tabber: Eric Dorcey


Intro
-|--------------|
-|--------------|
-|--------------|
-|--0~--0-12/---| x3
-|--0~--0-12/---|
-|--0~--0-12/---|
        .

-|-------------|
-|-------------|
-|-------------|
-|---------0---| (Do a slight bend when holding the 4th and 3rd frets.)
-|---------0---|
-|--4~-3~--0---|
           (Hit the last open note and mute strings quickly.)

Drums do a four count

Main 1
-|-----------------|
-|-----------------|
-|-----------------|
-|--0-0-0-0-0-0~---| x3
-|--0-0-0-0-0-0~---|
-|--0-0-0-0-0-0~---|
    . . . . . .   (Do half palm-mutes so that the strings can still ring out, but not fully.)

Then
-|--------------------------|
-|--------------------------|
-|--------------------------|
-|--0-0-0-0-0-0-------------| x1
-|--0-0-0-0-0-0-------------|
-|--0-0-0-0-0-0-434b-434b---|
    . . . . . .

Main 2
-|----------------------------|
-|----------------------------|
-|----------------------------|
-|--0-0-0-0-0-0~-000--000000--|
-|--0-0-0-0-0-0~-000--000000--|
-|--0-0-0-0-0-0~-000--000000--|
    . . . . . .  ...  ......

-|--------------------------|
-|--------------------------|
-|--------------------------|
-|--0-0-0-0-0-0-------------|
-|--0-0-0-0-0-0-------------|
-|--0-0-0-0-0-0-434b-434b---|
    . . . . . .

-|----------------------------|
-|----------------------------|
-|----------------------------|
-|--0-0-0-0-0-0~-000--000000--|
-|--0-0-0-0-0-0~-000--000000--|
-|--0-0-0-0-0-0~-000--000000--|
    . . . . . .  ...  ......

-|--------------------------|
-|--------------------------|
-|--------------------------|
-|--0-0-0-0-0-0-------------|
-|--0-0-0-0-0-0-------------|
-|--0-0-0-0-0-0-434b-434b---|
    . . . . . .

Outro
-|-----------------|
-|-----------------|
-|-----------------|
-|--0-0-0-0-0-0~---|
-|--0-0-0-0-0-0~---|
-|--0-0-0-0-0-0~---|
(Mute strings with your fretting hand in between strums.)
Tap to rate this tab
# A B C D E F G H I J K L M N O P Q R S T U V W X Y Z