Song name
# A B C D E F G H I J K L M N O P Q R S T U V W X Y Z

Bury Your Dead - Camo Is My Favorite Color tab

Tuning Drop Bb
intro
C |--|----------------------|
G |--|----------------------|
Eb|--|----------------------|
Bb|0-|000000-430133-2>-10>--|
F |0-|000000-430133-2>-10>--|
Bb|0~|000000-430133-2>-10>--| x3

last time
C |----------------------------------|
G |----------------------------------|
Eb|----------------------------------|
Bb|000000-43013302>-10x10x10x10x0~---|
F |000000-43013302>-10x10x10x10x0~---|
Bb|000000-430133-2>-10x10x10x10x0~---|



verse
c |-------------------------------------------------------------------|
g |-------------------------------------------------------------------|
Eb|-------------------------------------------------------------------|
Bb|00000-0x-00000-0x-0000-----------00000-0x-00000-0x-0000------------|
F |00000-0x-00000-0x-0000-----------00000-0x-00000-0x-0000------------|
Bb|00000-0x-00000-0x-0000-335511330-00000-0x-00000-0x-0000-323-5/6-310| 

C||------------------------------------------------------------------------------------|
G||----------17-17--17-17-----------------------------17-17--17-17---------------------|
Eb|----------20-20--20-20-----------------------------20-20--20-20---------------------|
Bb|00000-0x---------------0x-00000---------0-00000-0x---------------0x-0000------------|
f||00000-0x---------------0x-00000---------0-00000-0x---------------0x-0000------------|
Bb|00000-0x---------------0x-00000-335511330-00000-0x---------------0x-0000-323-5/6-310|


C |-----------------------------------------|
G |-----------------------------------------|
Eb|---|------------555555-444444------------|
Bb|0--|33363-22252-555555-444444------------|
F |0--|33363-22252-333333-222222------------|
Bb|0~-|33363-22252--------------------------| x4 [last two times are muted]

outro
c |-------------------------------------------------------------------|
g |-------------------------------------------------------------------|
Eb|-------------------------------------------------------------------|
Bb|00000-0x-00000-0x-0000-----------00000-0x-00000-0x-0000------------|
F |00000-0x-00000-0x-0000-----------00000-0x-00000-0x-0000------------|
Bb|00000-0x-00000-0x-0000-335511330-00000-0x-00000-0x-0000-323-5/6-310| 

C||------------------------------------------------------------------------------------|
G||----------17-17--17-17-----------------------------17-17--17-17---------------------|
Eb|----------20-20--20-20-----------------------------20-20--20-20---------------------|
Bb|00000-0x---------------0x-00000---------0-00000-0x---------------0x-0000------------|
f||00000-0x---------------0x-00000---------0-00000-0x---------------0x-0000------------|
Bb|00000-0x---------------0x-00000-335511330-00000-0x---------------0x-0000-323-5/6-310|
Tap to rate this tab
# A B C D E F G H I J K L M N O P Q R S T U V W X Y Z