Song name
# A B C D E F G H I J K L M N O P Q R S T U V W X Y Z

Burzum - The Crying Orc tab

       THE CRYING ORC
                              As recorded by Burzum
                        (From the 1991 Album BURZUM/ASKE)

Music by Varg Vikernes
Arranged by Varg Vikernes
Transcribed by Inflames130

Gtr I (C F Bb Eb G C) - 'Count Grishnackh (Varg)'
Gtr II (C F Bb Eb G C) - 'Count Grishnackh (Varg)'

Tablature Legend
----------------
 h   - hammer-on
 p   - pull-off
 b   - bend
 pb  - pre-bend
 r   - bend release (if no number after the r, then release immediately)
 /\  - slide into or out of (from/to "nowhere")
 s   - legato slide
 S   - shift slide
  - natural harmonic
[n]  - artificial harmonic
n(n) - tapped harmonic
 ~   - vibrato
 tr  - trill
 T   - tap
 TP  - trem. picking
 PM  - palm muting
\n/  - tremolo bar dip; n = amount to dip
 \n  - tremolo bar down
 n/  - tremolo bar up
/n\  - tremolo bar inverted dip
 =   - hold bend; also acts as connecting device for hammers/pulls
 <>  - volume swell (louder/softer)
 x   - on rhythm slash represents muted slash
 o   - on rhythm slash represents single note slash

   Intro
    A           G                   F           E
   3/4
    Gtr I
    Q.   E Q    Q  +E  +S  +S  Q    Q.   E Q    E Q.   Q
||------------|-------------------|-----------|------------||
||o------6-5--|-------------------|-----------|-----------o||
||------------|-------------------|--------5--|------------||
||--7---------|-5--(5)-(5)-(5)s7--|-3---------|-2s3----5---||
||o-----------|-------------------|------3----|-----------o||
||------------|-------------------|-----------|------------||


   Verse
    A              G                      F              E
     Q.    E  Q     Q   +E  +S  +S   Q     Q.    E  Q     E  Q.    Q
||---------------|----------------------|--------------|--------------|
||o--------6--5--|----------------------|--------------|--------------|
||---------------|----------------------|-----------5--|--------------|
||---7-----------|--5---(5)-(5)-(5)s=7--|--3-----------|--2s=3-----5--|
||o--------------|----------------------|--------3-----|--------------|
||---------------|----------------------|--------------|--------------|
|
|   Gtr II
|    Q.    E  Q     Q.       E       Q     Q.    E  Q     E  Q.    Q
||---------------|----------------------|-------15-----|--------------|
||o-------13-12--|------------------12--|-13-------13--|-12s13----12--|
||--14-----------|-12-------14----------|--------------|--------------|
||---------------|----------------------|--------------|--------------|
||o--------------|----------------------|--------------|--------------|
||---------------|----------------------|--------------|--------------|


  A              G                      F              E
   Q.    E  Q     Q   +E  +S  +S   Q     Q.    E  Q     E  Q.    Q
|--------------|----------------------|--------------|---------------||
|--------6--5--|----------------------|--------------|--------------o||
|--------------|----------------------|-----------5--|---------------||
|--7-----------|--5---(5)-(5)-(5)s=7--|--3-----------|--2s=3-----5---||
|--------------|----------------------|--------3-----|--------------o||
|--------------|----------------------|--------------|---------------||
|
|  Q.    E  Q     Q.       E       Q     Q.    E  Q     E  Q.    Q
|--------------|----------------------|-------15-----|---------------||
|-------13-12--|------------------12--|-13-------13--|-12s13----15--o||
|-14-----------|-12-------14----------|--------------|---------------||
|--------------|----------------------|--------------|---------------||
|--------------|----------------------|--------------|--------------o||
|--------------|----------------------|--------------|---------------||


 Outro
  A               G                   F           E
   Q.   E   Q     Q  +E  +S  +S  Q    Q.   E Q    E E  H
|---------------|-------------------|-----------|------------|
|-------6---5---|-------------------|-----------|------------|
|---------------|-------------------|--------5--|------------|
|--7------------|-5--(5)-(5)-(5)s7--|-3---------|-2----------|
|---------------|-------------------|------3----|------------|
|---------------|-------------------|-----------|------------|
|
|  >
|  H       +Q     H              Q    H      Q    E Q.    Q
|---------------|-------------------|-----------|------------|
|---------------|-------------------|-----------|------------|
|-14------(14)--|-------------------|-----------|------------|
|---------------|-------------------|-----------|---3-----5--|
|---------------|-------------------|-----------|------------|
|---------------|-------------------|-----------|------------|


    A           G                   F           E
    Gtr II
    Q.   E Q    Q  +E  +S  +S  Q    Q.   E Q    E Q.   Q   3x
||------------|-------------------|-----------|------------||
||o------6-5--|-------------------|-----------|-----------o||
||------------|-------------------|--------5--|------------||
||--7---------|-5--(5)-(5)-(5)s7--|-3---------|-2s3----5---||
||o-----------|-------------------|------3----|-----------o||
||------------|-------------------|-----------|------------||
Tap to rate this tab
# A B C D E F G H I J K L M N O P Q R S T U V W X Y Z