Song name
# A B C D E F G H I J K L M N O P Q R S T U V W X Y Z

Burzum - Keliohesten tab

Song: Keliohesten
Artist: Burzum
Album: Belus

Tabbed by: AshandRuin
Email: ashandruin@hotmail.co.uk

Tuning: E A D G B E

Key:
" tremolo
. Palm Mute
/ Slide

Comment and rate please.
Also this is my first submitted tab.
Timing is not correct but is easy to figure out by listening to the song.

Fades in

e|---------------------------------------------------------------------------|
B|---------------------------------------------------------------------------|
G|---------------------------------------------------------------------------|
D|---------------------------------------------------------------------------|
A|---------------------------------------------------------------------------|
E|--5"-----------------------------------------------------------------------|

Riff 1

e|---------------------------------------------------------------------------|
B|--11"----------------------------------------------------------------------|
G|---------------------------------------------------------------------------|
D|---------14"--11"----------------------------------------------------------|
A|---------------------12"--8"-----------------------------------------------|
E|---------------------------------------------------------------------------|


Riff 3

e|---------------------------------------------------------------------------|
B|---------------------------------------------------------------------------|
G|---------------------------------------------------------------------------|
D|---------------------------------------------------------------------------|
A|---------------------------------------------------------------------------|
E|--5"----6"----8"---------5"----10"--8"--6"--------------------------------|

e|---------------------------------------------------------------------------|
B|---------------------------------------------------------------------------|
G|---------------------------------------------------------------------------|
D|---------------------------------------------------------------------------|
A|---------------------------------------------------------------------------|
E|--5"----6"--5"--6"--8"---------5"----10"--8"--6"--------------------------|


Riff 4

e|---------------------------------------------------------------------------|
B|---------------------------------------------------------------------------|
G|---------------------------------------------------------------------------|
D|--7--7777-7-77----8-7-8-10-----7--7777-7-77----12--10--8-------------------|
A|--7--7777-7-77----8-7-8-10-----7--7777-7-77----12--10--8-------------------|
E|--5--5555-5-55----6-5-6--8-----5--5555-5-55----10--8---6-------------------|
       ....   ..                    ....   ..                  

e|---------------------------------------------------------------------------|
B|---------------------------------------------------------------------------|
G|---------------------------------------------------------------------------|
D|--7--7777-7-77----8-7-8-10-----7--7777-7-77----7/12--10--8-----------------|
A|--7--7777-7-77----8-7-8-10-----7--7777-7-77----7/12--10--8-----------------|
E|--5--5555-5-55----6-5-6--8-----5--5555-5-55----5/10--8---6-----------------|
       ....   ..                    ....   ..  
Tap to rate this tab
# A B C D E F G H I J K L M N O P Q R S T U V W X Y Z