Song name
# A B C D E F G H I J K L M N O P Q R S T U V W X Y Z

Burzum - Lost Wisdom tab

burzum
Lost Wisdom

Riff 1

|--------------------------------|
|--------------------------------|
|--------------------------------|
|--4---------------4-------------|
|--2---------5-6---2-------------|
|-0-0-3-0-00-3-4--0-0-3-1-2b3b2--| x2 
       PM|
Riff 2 [gtr 2] [gtr 1 plays a E powerchord]

|-------------------------|
|-------------------------|
|-------------------------|
|-2222h5555-44444444-5-4--|
|-2222-2222h33333333-3-3--|
|-------------------------| x2

Riff 2 [gtr 1, gtr 2] x6 

Riff 3

|----------------------|
|----------------------|
|----------------------|
|----------------------|
|-7~--------7~---------|
|---8\2-3-5---8\2-323--| x2
                PM--|

Riff 4

[gtr 1]

|---------------------------|
|---------------------------|
|---------------------------|
|---------------------------|
|---------------------------|
|-787-87\2-3-5-787-87-2-5-3-| x2

[gtr 2]

|--------------------------------|
|--------------------------------|
|--------------------------------|
|----9-10------------9-10--12-10-|
|-787----9-10-12--787----9-------|
|--------------------------------|  x2

Riff 5

|---------------------|
|---------------------|
|---------------------|
|-9---------9---------|
|-7---------7---------|
|---8\2-3-5---8\2-323-| x2

Riff 6

|----------------------------------------------|
|------------------------------------------8-7-|
|-44447777766666666676--444477777666666666-----|
|----------------------------------------------|
|----------------------------------------------|
|----------------------------------------------|

Riff 1  x2

Riff 2  x2 [gtr 2]

Riff 2 x 6 [gtr 1,1]

|---------|
|---------|
|---------|
|-2-------|
|-2-------|
|-0-------|
Tap to rate this tab
# A B C D E F G H I J K L M N O P Q R S T U V W X Y Z