Song name
# A B C D E F G H I J K L M N O P Q R S T U V W X Y Z

Burzum - Belus tab

Song: Belus' Dod
Artist: Burzum (Varg vikernes)
Album Belus (2010)

Intro:
||----8------------888----------8-----------------------|
||-----9-------888-----999-------9------888-11-11-888---|
||-10---10-999---------------10---10-999----------------|
||-10------------------------10-------------------------|
||-8-------------------------8--------------------------|
||------------------------------------------------------| x2


Riff 1
||--------------------------------------------------------------------|
||--------------------------------------------------------------------|
||-10--------10--------9-----11------10--------10--------9-----8------|
||-10--------10--------9-----11------10--------10--------9-----8------|
||-8--888888-8---888---7-777-9--9999-8--888888-8--888888-7-777-6------|
||--------------------------------------------------------------------| x7

  RIff 2 part a                     riff 2 part b
||-------------------------------|---------------------------------------|
||-------------------------------|---------------------------------------|
||-10----------------------------|-10----------10--------10----11--------|
||-10-10-10-10-10-11-11-11-11-10-|-10----------10--------10101011111111--|
||-8-----------------------------|-8--88888888-8--888888-8-----9---------|
||-------------------------------|---------------------------------------|

||---------------------------------------------------------|
||---------------------------------------------------------|
||-10----------10----------11--------11--------------------|
||-10----------10----------111111111111111111--------------|
||-8-888888888-8-888888888-9---------9---------------------|
||---------------------------------------------------------|

Riff 2 part b x3  
    
Riff 1 x7

Riff 2 part b x3 F powerchord

Intro x4

Riff 1 x2

Intro x11

F powerchord

Tap to rate this tab
# A B C D E F G H I J K L M N O P Q R S T U V W X Y Z