Burzum - Hermodr A Helferd tab

-------------------------------------------------------------------------------
			     Hermodr A Helferd - Burzum
-------------------------------------------------------------------------------
Tabbed by: Chaingang
Email: deltreed@umail.iu.edu

Tuning:Standard

This tab represents my interpretation of this song. I tabbed this out because the other 
tab on this site was completely off.
I hope you enjoy Burzum's music as much as I do. Remember, you can always shift notes 
around to different strings if you feel the need.

If you like this tab, please check out my other Daudi Baldrs tabs.

Piano (Repeat throughout)

e|---------------------------------------------------------------------------|
B|---------------------------------------------------------------------------|
G|---------------------------------------------------------------------------|
D|---------12----------------------------------------------------------------|
A|--10------------10-----------------Last note of song-----------------------|
E|-----------------------12-----------(--12~-)-------------------------------|

Violin

e|--------------------14----------------------------17-----------------------|
B|--12--15--12----12------15-----12--15--12-----12------19-------------------|
G|---------------------------------------------------------------------------|
D|---------------------------------------------------------------------------|
A|---------------------------------------------------------------------------|
E|---------------------------------------------------------------------------|

************************************

| /   slide up
| \   slide down
| h   hammer-on
| p   pull-off
| ~   vibrato
| +   harmonic
| x   Mute note
| b   Bend
| pb  Pre-bend
| br  Bend release
| pbr Pre-bend release
| brb Bend release bend

************************************
Tap to rate this tab
 
# A B C D E F G H I J K L M N O P Q R S T U V W X Y Z