Burzum - Illa Tidandi tab

-------------------------------------------------------------------------------
			     Illa Tidandi - Burzum
-------------------------------------------------------------------------------
Tabbed by: Chaingang
Email: deltreed@umail.iu.edu

Tuning: Standard

This is completely my transcription of this song. This tab represents my interpretation 
of Varg's synth. Move notes around if you wish to play it differently.

If you like this tab, please check out my other Daudi Baldrs tabs.

Alternate between each piano riff after 4x each throughout the song.

Piano Riff A 4x

e|---------------------------------------------------------------------------|
B|--------19--15~---------------20-------------------------------------------|
G|-11~------------------12~----------18---16~--------------------------------|
D|---------------------------------------------------------------------------|
A|-9~-------------------10~--------------------------------------------------|
E|-7~-------------------7~---------------------------------------------------|

Piano Riff B 4x

e|---------------------------------------------------------------------------|
B|---------12~-------------12--14--12----------------------------------------|
G|-11~--11------------12~----------------------------------------------------|
D|---------------------------------------------------------------------------|
A|-9~-----------------10~----------------------------------------------------|
E|-7~-----------------7~-----------------------------------------------------|

Choir [Starts at 1:54 ends at 9:27

e|---------------------------------------------------------------------------|
B|---------------------------------------------------------------------------|
G|---------------------------------------------------------------------------|
D|-9~------------------------------------12~---------------------------------|
A|-9~------------------------------------9~----------------------------------|
E|-7~------------------------------------------------------------------------|

Ending Chord

e|----------------------------|
B|----------------------------|
G|-----11~--------------------|
D|----------------------------|
A|-----9~---------------------|
E|-----7~---------------------|



************************************

| /   slide up
| \   slide down
| h   hammer-on
| p   pull-off
| ~   vibrato
| +   harmonic
| x   Mute note
| b   Bend
| pb  Pre-bend
| br  Bend release
| pbr Pre-bend release
| brb Bend release bend

************************************
Tap to rate this tab
 
# A B C D E F G H I J K L M N O P Q R S T U V W X Y Z