Song name
# A B C D E F G H I J K L M N O P Q R S T U V W X Y Z

Burzum - Naar Himmelen Klarner tab

     >    >    >           >    >  >  >    >       >    >    >         
     Q    Q    H           Q    E  E  Q    Q       Q    Q    H         
E||---------------------|-----------------------|---------------------|
B||---------------------|-----------------------|---------------------|
G||---------------------|-----------------------|---------------------|
D||-------2----3--------|-------2--3--5----3----|-------2----3--------|
A||--0------------------|--3--------------------|--0------------------|
E||---------------------|-----------------------|---------------------|


  >    >  >  >    >       >    >    >           >    >  >  >    >     
  Q    E  E  Q    Q       Q    Q    H           Q    E  E  Q    Q     
-----------------------|---------------------|-----------------------|
-----------------------|---------------------|-----------------------|
-----------------------|---------------------|-----------------------|
-------2--3--5----3----|-------2----3--------|-------2--3--5----3----|
--3--------------------|--0------------------|--3--------------------|
-----------------------|---------------------|-----------------------|


  >    >    >           >    >  >  >    >       >    >    >         
  Q    Q    H           Q    E  E  Q    Q       Q    Q    H         
---------------------|-----------------------|---------------------|
---------------------|-----------------------|---------------------|
---------------------|-----------------------|---------------------|
-------2----3--------|-------2--3--5----3----|-------2----3--------|
--0------------------|--3--------------------|--0------------------|
---------------------|-----------------------|---------------------|


  >    >  >  >    >       >    >    >           >    >  >  >    >     
  Q    E  E  Q    Q       Q    Q    H           Q    E  E  Q    Q     
-----------------------|---------------------|-----------------------|
-----------------------|---------------------|-----------------------|
-----------------------|---------------------|-----------------------|
-------2--3--5----3----|-------2----3--------|-------2--3--5----3----|
--3--------------------|--0------------------|--3--------------------|
-----------------------|---------------------|-----------------------|


  Q    Q    Q    Q       Q    E  E  E  E  E  E     Q    Q    Q    Q     
----------------------|-------------------------|----------------------|
----------------------|-------------------------|----------------------|
------------0---------|-------------------------|------------0---------|
-------2---------2----|-------2--3--5--3--2--3--|-------2---------2----|
--0-------------------|-------------------------|--0-------------------|
----------------------|--1----------------------|----------------------|


  Q    E  E  E  E  E  E     Q    Q    Q    Q       Q    E  E  E  E  E  E   
-------------------------|----------------------|-------------------------|
-------------------------|----------------------|-------------------------|
-------------------------|------------0---------|-------------------------|
-------2--3--5--3--2--3--|-------2---------2----|-------2--3--5--3--2--3--|
-------------------------|--0-------------------|-------------------------|
--1----------------------|----------------------|--1----------------------|


  Q    Q    Q    Q       W                   Q    Q    Q    Q     
----------------------|-------------------|----------------------|
----------------------|-------------------|----------------------|
------------0---------|-------------------|------------0---------|
-------2---------2----|-------------------|-------2---------2----|
--0-------------------|-------------------|--0-------------------|
----------------------|--1----------------|----------------------|


  Q    Q    Q    Q       Q    Q    Q    Q       Q    Q    Q    Q     
----------------------|----------------------|----------------------|
----------------------|----------------------|----------------------|
----------------------|------------0---------|----------------------|
------------3---------|-------2---------2----|----------------------|
-------3---------3----|--0-------------------|--3----3----2----2----|
--1-------------------|----------------------|----------------------|


  Q    Q    Q    Q       Q    Q    Q    Q       Q    Q    Q    Q     
----------------------|----------------------|----------------------|
----------------------|----------------------|----------------------|
------------0---------|----------------------|------------0---------|
-------2---------2----|------------3---------|-------2---------2----|
--0-------------------|-------3---------3----|--0-------------------|
----------------------|--1-------------------|----------------------|


  Q    Q    Q    Q       Q    Q    Q    Q       Q    Q    Q    Q     
----------------------|----------------------|----------------------|
----------------------|----------------------|----------------------|
----------------------|------------0---------|----------------------|
----------------------|-------2---------2----|------------3---------|
--3----3----5----5----|--0-------------------|-------3---------3----|
----------------------|----------------------|--1-------------------|


  Q    Q    Q    Q       Q    Q    Q    Q       Q    Q    Q    Q     
----------------------|----------------------|----------------------|
----------------------|----------------------|----------------------|
------------0---------|----------------------|------------0---------|
-------2---------2----|----------------------|-------2---------2----|
--0-------------------|--3----3----2----2----|--0-------------------|
----------------------|----------------------|----------------------|


  Q    Q    Q    Q       Q    Q    Q    Q       Q    Q    Q    Q     
----------------------|----------------------|----------------------|
----------------------|----------------------|----------------------|
----------------------|------------0---------|----------------------|
------------3---------|-------2---------2----|----------------------|
-------3---------3----|--0-------------------|--3----3----5----5----|
--1-------------------|----------------------|----------------------|


  Q    Q    Q    Q       Q    E  E  E  E  E  E     Q    Q    Q    Q     
----------------------|-------------------------|----------------------|
----------------------|-------------------------|----------------------|
------------0---------|-------------------------|------------0---------|
-------2---------2----|-------2--3--5--3--2--3--|-------2---------2----|
--0-------------------|-------------------------|--0-------------------|
----------------------|--1----------------------|----------------------|


  Q    E  E  E  E  E  E     Q    Q    Q    Q       Q    E  E  E  E  E  E   
-------------------------|----------------------|-------------------------|
-------------------------|----------------------|-------------------------|
-------------------------|------------0---------|-------------------------|
-------2--3--5--3--2--3--|-------2---------2----|-------2--3--5--3--2--3--|
-------------------------|--0-------------------|-------------------------|
--1----------------------|----------------------|--1----------------------|


                                                   >    >    >         
  Q    Q    Q    Q       Q    E  E  E  E  E  E     Q    Q    H         
----------------------|-------------------------|---------------------|
----------------------|-------------------------|---------------------|
------------0---------|-------------------------|---------------------|
-------2---------2----|-------2--3--5--3--2--3--|-------2----3--------|
--0-------------------|-------------------------|--0------------------|
----------------------|--1----------------------|---------------------|


  >    >  >  >    >       >    >    >           >    >  >  >    >     
  Q    E  E  Q    Q       Q    Q    H           Q    E  E  Q    Q     
-----------------------|---------------------|-----------------------|
-----------------------|---------------------|-----------------------|
-----------------------|---------------------|-----------------------|
-------2--3--5----3----|-------2----3--------|-------2--3--5----3----|
--3--------------------|--0------------------|--3--------------------|
-----------------------|---------------------|-----------------------|


  >    >    >           >    >  >  >    >       >    >    >         
  Q    Q    H           Q    E  E  Q    Q       Q    Q    H         
---------------------|-----------------------|---------------------|
---------------------|-----------------------|---------------------|
---------------------|-----------------------|---------------------|
-------2----3--------|-------2--3--5----3----|-------2----3--------|
--0------------------|--3--------------------|--0------------------|
---------------------|-----------------------|---------------------|


  >    >  >  >    >       >    >    >           >    >  >  >    >     
  Q    E  E  Q    Q       Q    Q    H           Q    E  E  Q    Q     
-----------------------|---------------------|-----------------------|
-----------------------|---------------------|-----------------------|
-----------------------|---------------------|-----------------------|
-------2--3--5----3----|-------2----3--------|-------2--3--5----3----|
--3--------------------|--0------------------|--3--------------------|
-----------------------|---------------------|-----------------------|


  >    >    >           >    >  >  >    >                           
  Q    Q    H           Q    E  E  Q    Q       H        Q    Q     
---------------------|-----------------------|---------------------|
---------------------|-----------------------|---------------------|
---------------------|-----------------------|---------------------|
-------2----3--------|-------2--3--5----3----|-----------2---------|
--0------------------|--3--------------------|--0-------------0----|
---------------------|-----------------------|---------------------|


  H        H           H        Q    Q       E  E  Q    H         
--------------------|---------------------|----------------------|
--------------------|---------------------|----------------------|
--------------------|---------------------|----------------------|
-----------3--------|-----------2---------|----------------------|
--1-----------------|--0-------------0----|----------------------|
--------------------|---------------------|--3--5--3----1--------|


  H        Q    Q       H        H           H        Q    Q     
---------------------|--------------------|---------------------|
---------------------|--------------------|---------------------|
---------------------|--------------------|---------------------|
-----------2---------|-----------3--------|-----------2---------|
--0-------------0----|--1-----------------|--0-------------0----|
---------------------|--------------------|---------------------|


  E  E  Q    H           H        Q    Q       H        H         
----------------------|---------------------|--------------------|
----------------------|---------------------|--------------------|
----------------------|---------------------|--------------------|
----------------------|-----------2---------|-----------3--------|
----------------------|--0-------------0----|--1-----------------|
--3--5--3----1--------|---------------------|--------------------|


  H        Q    Q       E  E  Q    H           H        Q    Q     
---------------------|----------------------|---------------------|
---------------------|----------------------|---------------------|
---------------------|----------------------|---------------------|
-----------2---------|----------------------|-----------2---------|
--0-------------0----|----------------------|--0-------------0----|
---------------------|--3--5--3----1--------|---------------------|


  H        H           H        Q    Q       E  E  Q    H         
--------------------|---------------------|----------------------|
--------------------|---------------------|----------------------|
--------------------|---------------------|----------------------|
-----------3--------|-----------2---------|----------------------|
--1-----------------|--0-------------0----|----------------------|
--------------------|---------------------|--3--5--3----1--------|


  H        Q    Q       H        H           H        Q    Q     
---------------------|--------------------|---------------------|
---------------------|--------------------|---------------------|
---------------------|--------------------|---------------------|
---------------------|--------------------|---------------------|
-----------2---------|-----------3--------|-----------2---------|
--0-------------0----|--1-----------------|--0-------------0----|


  Q    Q    Q    Q       H        Q    Q       H        H         
----------------------|---------------------|--------------------|
----------------------|---------------------|--------------------|
----------------------|---------------------|--------------------|
----------------------|---------------------|--------------------|
-------5---------3----|-----------2---------|-----------3--------|
--3---------1---------|--0-------------0----|--1-----------------|


  H        Q    Q       Q    Q    Q    Q       H        Q    Q     
---------------------|----------------------|---------------------|
---------------------|----------------------|---------------------|
---------------------|----------------------|---------------------|
---------------------|----------------------|-----------2---------|
-----------2---------|-------5---------3----|--0-------------0----|
--0-------------0----|--3---------1---------|---------------------|


  H        H           H        Q    Q       E  E  Q    H         
--------------------|---------------------|----------------------|
--------------------|---------------------|----------------------|
--------------------|---------------------|----------------------|
-----------3--------|-----------2---------|----------------------|
--1-----------------|--0-------------0----|----------------------|
--------------------|---------------------|--3--5--3----1--------|


  H        Q    Q       H        H           H        Q    Q     
---------------------|--------------------|---------------------|
---------------------|--------------------|---------------------|
---------------------|--------------------|---------------------|
-----------2---------|-----------3--------|-----------2---------|
--0-------------0----|--1-----------------|--0-------------0----|
---------------------|--------------------|---------------------|


  E  E  Q    H           H        Q    Q       H        H         
----------------------|---------------------|--------------------|
----------------------|---------------------|--------------------|
----------------------|---------------------|--------------------|
----------------------|---------------------|--------------------|
----------------------|-----------2---------|-----------3--------|
--3--5--3----1--------|--0-------------0----|--1-----------------|


  H        Q    Q       Q    Q    Q    Q       H        Q    Q     
---------------------|----------------------|---------------------|
---------------------|----------------------|---------------------|
---------------------|----------------------|---------------------|
---------------------|----------------------|---------------------|
-----------2---------|-------5---------3----|-----------2---------|
--0-------------0----|--3---------1---------|--0-------------0----|


  H        H           H        Q    Q       Q    Q    Q    Q     
--------------------|---------------------|----------------------|
--------------------|---------------------|----------------------|
--------------------|---------------------|----------------------|
--------------------|---------------------|----------------------|
-----------3--------|-----------2---------|-------5---------3----|
--1-----------------|--0-------------0----|--3---------1---------|


  H        Q    Q       H        H           H        Q    Q     
---------------------|--------------------|---------------------|
---------------------|--------------------|---------------------|
---------------------|--------------------|---------------------|
-----------2---------|-----------3--------|-----------2---------|
--0-------------0----|--1-----------------|--0-------------0----|
---------------------|--------------------|---------------------|


  E  E  Q    H           H        Q    Q       H        H         
----------------------|---------------------|--------------------|
----------------------|---------------------|--------------------|
----------------------|---------------------|--------------------|
----------------------|-----------2---------|-----------3--------|
----------------------|--0-------------0----|--1-----------------|
--3--5--3----1--------|---------------------|--------------------|


  H        Q    Q       E  E  Q    H           H        Q    Q     
---------------------|----------------------|---------------------|
---------------------|----------------------|---------------------|
---------------------|----------------------|---------------------|
-----------2---------|----------------------|-----------2---------|
--0-------------0----|----------------------|--0-------------0----|
---------------------|--3--5--3----1--------|---------------------|


  H        H           H        Q    Q       E  E  Q    H         
--------------------|---------------------|----------------------|
--------------------|---------------------|----------------------|
--------------------|---------------------|----------------------|
-----------3--------|-----------2---------|----------------------|
--1-----------------|--0-------------0----|----------------------|
--------------------|---------------------|--3--5--3----1--------|


  H        Q    Q       H        H           H        Q    Q     
---------------------|--------------------|---------------------|
---------------------|--------------------|---------------------|
---------------------|--------------------|---------------------|
-----------2---------|-----------3--------|-----------2---------|
--0-------------0----|--1-----------------|--0-------------0----|
---------------------|--------------------|---------------------|


  E  E  Q    H           H        Q    Q       H        H         
----------------------|---------------------|--------------------|
----------------------|---------------------|--------------------|
----------------------|---------------------|--------------------|
----------------------|-----------2---------|-----------3--------|
----------------------|--0-------------0----|--1-----------------|
--3--5--3----1--------|---------------------|--------------------|


  H        Q    Q       E  E  Q    H           H        Q    Q     
---------------------|----------------------|---------------------|
---------------------|----------------------|---------------------|
---------------------|----------------------|---------------------|
-----------2---------|----------------------|-----------2---------|
--0-------------0----|----------------------|--0-------------0----|
---------------------|--3--5--3----1--------|---------------------|


  H        H           H        Q    Q       E  E  Q    H         
--------------------|---------------------|----------------------|
--------------------|---------------------|----------------------|
--------------------|---------------------|----------------------|
-----------3--------|-----------2---------|----------------------|
--1-----------------|--0-------------0----|----------------------|
--------------------|---------------------|--3--5--3----1--------|


  H        Q    Q       H        H           H        Q    Q     
---------------------|--------------------|---------------------|
---------------------|--------------------|---------------------|
---------------------|--------------------|---------------------|
-----------2---------|-----------3--------|-----------2---------|
--0-------------0----|--1-----------------|--0-------------0----|
---------------------|--------------------|---------------------|


  E  E  Q    H          
----------------------||
----------------------||
----------------------||
----------------------||
----------------------||
--3--5--3----1--------||




Duration Legend
---------------
W - whole
H - half
Q - quarter
E - 8th
S - 16th
T - 32nd
X - 64th
. - note dotted
|-n-|  - n-tuplets


Tablature Legend
----------------
L - tied note
x - dead note
g - grace note
(n) - ghost note
> - accentuded note
NH - natural harmonic
AH - artificial harmonic
TH - tapped harmonic
SH - semi harmonic
PH - pitch harmonic
h - hammer on
p - pull off
b - bend
br - bendRelease
pb - preBend
pbr - preBendRelease
brb - bendReleaseBend
\n/ - tremolo bar dip
\n - tremolo bar dive
-/n - tremolo bar Release up
/n\ - tremolo bar inverted dip
/n - tremolo bar return
-\n - tremolo bar Release down
S - shift slide
s - legato slide
/ -  slide into from below or out of upwards
\ -  slide into from above or out of downwards
~ - vibrato
W - wide vibrato
tr - trill
TP - tremolo picking
T - tapping
S - slap
P - pop
< - fade in
^ - brush up
v - brush down
Tap to rate this tab
 
# A B C D E F G H I J K L M N O P Q R S T U V W X Y Z