Song name
# A B C D E F G H I J K L M N O P Q R S T U V W X Y Z

Burzum - Ea Lord Of The Depths tab

This is the second track off the 1992 album, Burzum.

And now the drums are playing...

These are all sixteenth notes, except when noted

Lead:
E----------------------------------|-----------------------------------|
B--------------------------4-4-4-4-|-3-3-3-3---------------------------|
G------------------5-5-5-5---------|---------4-4-4-4-------------------|
D----------5-5-5-5-----------------|-----------------4-4-4-4-----------|
A--3-3-3-3-------------------------|-------------------------2-2-2-2---|
E----------------------------------|-----------------------------------|


E----------------------------------|-----------------------------------|
B----------------------------------|-----------------------------------|
G----------------------------------|-----------------------------------|
D----------------------------------|-----------------------------------|
A----------3-3-3-3-6-6-6-6-3-3-----|---------5-5-5-5-6-6-6-6-5-5-5-5---|
E--4-4-4-4---------------------4-4-|-3-3-3-3---------------------------|

Rhythm:
E----------------------------------|-----------------------------------|
B----------------------------------|-----------------------------------|
G----------------------------------|-----------------------------------|
D--5-5-5-5-5-5-5-5-5-5-5-5-5-5-5-5-|-4-4-4-4-4-4-4-4-4-4-4-4-4-4-4-4---|
A--3-3-3-3-3-3-3-3-3-3-3-3-3-3-3-3-|-2-2-2-2-2-2-2-2-2-2-2-2-2-2-2-2---|
E----------------------------------|-----------------------------------|

E----------------------------------|-----------------------------------|
B----------------------------------|-----------------------------------|
G----------------------------------|-----------------------------------|
D----------------------------------|-----------------------------------|
A--6-6-6-6-6-6-6-6-6-6-6-6-6-6-6-6-|-5-5-5-5-5-5-5-5-5-5-5-5-5-5-5-5---|
E--4-4-4-4-4-4-4-4-4-4-4-4-4-4-4-4-|-3-3-3-3-3-3-3-3-3-3-3-3-3-3-3-3---|

Repeat this 6x then

Chorus/Pre-verse

Lead:
E----------------------------------|-----------------------------------|
B----------------------------------|-----------------------------------|
G----------------------------------|-----------------5-5-5-5-3-3-3-3---|
D--6-6-6-6-6-6-6-6-3-3-3-3-0-0-0-0-|-5-5-5-5-5-5-5-5-------------------|
A----------------------------------|-----------------------------------|
E----------------------------------|-----------------------------------|

Rhythm:
E----------------------------------|-----------------------------------|
B----------------------------------|-----------------------------------|
G----------------------------------|-----------------------------------|
D--3-3-3-3-3-3-3-3-0-0-0-0---------|-----------------5-5-5-5-3-3-3-3---|
A--------------------------2-2-2-2-|-3-3-3-3-3-3-3-3-------------------|
E----------------------------------|-----------------------------------|

Play this 4x then

Verse

Lead:
E----------------------------------|-----------------------------------|
B----------------------------------|-----------------------------------|
G----------------------------------|-----------------------------------|
D------------------5-5-5-5-6-6-6-6-|-----------------------------------|
A--3-3-3-3-3-3-3-3-----------------|------------------6-6-6-6-5-5-5-5--|
E----------------------------------|--4-4-4-4-4-4-4-4------------------|

E----------------------------------|-----------------------------------|
B----------------------------------|-----------------------------------|
G----------------------------------|-----------------------------------|
D------------------5-5-5-5-6-6-6-6-|------------------7-7-7-7-6-6-6-6--|
A--3-3-3-3-3-3-3-3-----------------|--4-4-4-4-4-4-4-4------------------|
E----------------------------------|-----------------------------------|

Rhythm:
E----------------------------------|-----------------------------------|
B----------------------------------|-----------------------------------|
G----------------------------------|-----------------------------------|
D--5-5-5-5-5-5-5-5-5-5-5-5-5-5-5-5-|-----------------------------------|
A--3-3-3-3-3-3-3-3-3-3-3-3-3-3-3-3-|-6-6-6-6-6-6-6-6-6-6-6-6-6-6-6-6---|
E----------------------------------|-4-4-4-4-4-4-4-4-4-4-4-4-4-4-4-4---|

E----------------------------------|-----------------------------------|
B----------------------------------|-----------------------------------|
G----------------------------------|-----------------------------------|
D--5-5-5-5-5-5-5-5-5-5-5-5-5-5-5-5-|-6-6-6-6-6-6-6-6-6-6-6-6-6-6-6-6---|
A--3-3-3-3-3-3-3-3-3-3-3-3-3-3-3-3-|-4-4-4-4-4-4-4-4-4-4-4-4-4-4-4-4---|
E----------------------------------|-----------------------------------|

Play that 10x, then

Chorus/Pre-verse

Verse

Chorus/Pre-verse

Solo

Lead:

   Q                              Q
E-------------------------------|---------------------------------|
B-------------------------------|---------------------------------|
G--5-8-7-5-5-8-7-5-5-8-7-5-5----|-8-11-10-8-8-11-10-8-8-11-10-8-8-|
D-------------------------------|---------------------------------|
A-------------------------------|---------------------------------|
E-------------------------------|---------------------------------|

E-------------------------------|-----------------------------------|
B-------------------------------|-----------------------------------|
G--5-8-7-5-5-8-7-5-5-8-7-5-5----|-6-6-8-8-9-9-8-8-6-6-8-8-9-9-8-8---|
D-------------------------------|-----------------------------------|
A-------------------------------|-----------------------------------|
E-------------------------------|-----------------------------------|

Play that 4x, and

End on:

  W
E------|
B------|
G-5----|
D------|
A------|
E------|

Rhythm over the solo is just the verse.

After solo, play the verse, then

End on:

E------|
B------|
G------|
D--5---|
A--3---|
E------|

Q means quarter note
W means whole note

And that's all you need to know!

This is one of the funnest black metal songs I know to play, and one of my 
favorite Burzum tracks. Enjoy!
Tap to rate this tab
 
# A B C D E F G H I J K L M N O P Q R S T U V W X Y Z