Song name
# A B C D E F G H I J K L M N O P Q R S T U V W X Y Z

Burzum - Til Hel Og Tilbake Igjen tab

This is a tab for the beautiful guitar outro of Til Hel Og Tilbake Igjen, by 
Burzum. Just play it slow, and play it faintly. 

e|---7---7---9---9p7---------|
B|--7-7-7-7-7-7-7---7--------|
G|-7---7---7---7-------------|
D|---------------------------|
A|---------------------------| 
E|---------------------------|

e|---7---7---7-------7-------|
B|--7-7-7-7-7-7---7-----7----|
G|-9---9---9---9-------------|
D|---------------------------|
A|---------------------------| 
E|---------------------------|
Tap to rate this tab
# A B C D E F G H I J K L M N O P Q R S T U V W X Y Z