Song name
# A B C D E F G H I J K L M N O P Q R S T U V W X Y Z

Burzum - Naar Himmelen Klarner tab

Burzum - Naar Himmelen Klarner (From the "Det Som Engang Var" record)

Tabbed by Psycho (battlescar_psy@hotmail.com)
---------------------------------------------------------------------

Riff 1 (x2)
e[------------------------------]
b[------------------------------]
g[------------------------------]
d[---2-3---2-3-5-3--------------]
a[-0-----0----------------------]
E[------------------------------]

Riff 2 (x2)
e[----------------------------------]
b[----------------------------------]
g[----------------------------------]

d[---2-3---2-3-5-3-2-0--------------]
a[-0-----0--------------------------]
E[----------------------------------]

Riff 3 (This one is wrong, to messy to make out...)
e[------------------------------------------------------------------]
b[------------------------------------------------------------------]
g[-----0------------------------------------------------------------]
d[---2---2--5-5-7---------------------------------------------------]
a[-0--------3-3-5---------------------------------------------------]
E[------------------------------------------------------------------]

Riff 4
e[------------------------------------------------------------------]
b[------------------------------------------------------------------]
g[------------------------------------------------------------------]
d[------------------------------------------------------------------]
a[---7-----8-----7--------------------------------------------------]
E[-5---5-6-----5---5-3h5p3-1----------------------------------------]

Riff 5
e[------------------------------------------------------------------]
b[------------------------------------------------------------------]
g[------------------------------------------------------------------]
d[------------------------------------------------------------------]
a[---------3-----------5---3----------------------------------------]
E[-0-7-0-1---1-0-7-0-3---1------------------------------------------]
Tap to rate this tab
# A B C D E F G H I J K L M N O P Q R S T U V W X Y Z