Song name
# A B C D E F G H I J K L M N O P Q R S T U V W X Y Z

Burzum - Stemmen Fra Taarnet tab

-----------------------------------------------------------------
Artist: Burzum
Song: Stemmen Fra Taarnet
Album: Burzum
-----------------------------------------------------------------

Tabbed by: Matej Barač
Email: mbarac@gmail.com

Tuning: Standard (E A D G B e)

e|---------------------------------------------------------------|
B|---------------------------------------------------------------|
G|---------------------------------------------------------------|
D|-3----------3----------3----------3----------3----------3------|
A|-3----------3----------3----------3----------3----------3------|
E|-1----------1----------1----------1----------1----------1------|

e|-------------------------------|-------------------------------|
B|-------------------------------|-------------------------------|
G|-------------------------------|-------------------------------|
D|-6--6--6-5-5/6--6--6--6-8-8/9--|-6--6--6-5-5/6--6--6/5--2--2---|
A|-4--4--4-3-3/4--4--4--4-6-6/7--|-4--4--4-3-3/4--4--4/3--0--0---|
E|-------------------------------|-------------------------------|

e|-------------------------|-------------------------------------|
B|-------------------------|-------------------------------------|
G|-------------------------|-6--6--6--6-8-8-6-6-5-5-6-6-5--------|
D|-3--3--3--3-3-3-4-3--4-3-|-4--4--4--4-6-6-4-4-3-3-4-4-3--------|
A|-1--1--1--1-1-1-1-1--1-1-|-------------------------------------|
E|-------------------------|-------------------------------------|

e|------------------------------|---------------------------------|
B|------------------------------|---------------------------------|
G|------------------------------|---------------------------------|
D|-3--3--3-4-4\3--4--4--4-6-6\4-|-3--3--3-4-4\3--6--6--6\5/6------|
A|-1--1--1-2-2\1--2--2--2-4-4\2-|-1--1--1-2-2\1--4--4--4\3/4------|
E|------------------------------|---------------------------------|

e|---------------------------------------------------------------|
B|---------------------------------------------------------------|
G|---------------------------------------------------------------|
D|-6----------6----------6----------6----------------------------|
A|-6----------6----------6----------6------3/12\3----------------|
E|-4----------4----------4----------4----------------------------|

e|---------------------------------------------------------------|
B|---------------------------------------------------------------|
G|---------------------------------------------------------------|
D|-6-6-6-6-6-6-6-6/7-7-7-7-7-7-7-7-7-----------------------------|
A|-6-6-6-6-6-6-6-6/5-5-5-5-5-5-5-5-7-----------------------------|
E|-4-4-4-4-4-4-4-4/5-5-5-5-5-5-5-5-5-----------------------------|
Tap to rate this tab
# A B C D E F G H I J K L M N O P Q R S T U V W X Y Z