Song name
# A B C D E F G H I J K L M N O P Q R S T U V W X Y Z

Busby Marou - Biding My Time chords

Highlighted       Show chord diagrams
Hey- I couldn't quite get the solo right- so if you can let me know!

E
I could tell you stories
E
Could you teach me some more?
A
Iíll tell you boutí the countries
A
Youíve never been before

E
Iíll go on forever
E
Forever in a day
A
Until you lose the interest
A
Right then I walk away

C#m
So I wonít let that happen
        E
Not while weíre living free
B
I can be the poet
B
You can be the story

E
You can keep me grounded
E
Keep me on my toes
A
Iíll always be chasing you
A
Wherever you may go

E
And if you slip ahead
E
And break away from us
A
Donít run out of sight
A
I just might not catch up

C#m
But I wonít let that happen
        E
Not while weíre having fun

B
You can be the runner
B
I can be the gun

E                            B
Iíll be waiting for you here
                             C#m
When you come calling
            A
Iíll be waiting
	E                        B
Biding my time, biding my time
                     C#m
Waiting for you here
                   A
Biding my time here

E
We can sit in silence
E
I know thatís what you love
A
I learn to appreciate
A
The beauty from the love

E
And I can share my secrets
E
Iíve only sung before
A
You can choose to stand by me
A
Or simply to ignore

    C#m
So I wonít let that happen
E
While we both belong
B
I can be the singer
B
you can be the song

E                            B
Iíll be waiting for you here
                             C#m
When you come calling
            A
Iíll be waiting
	E                        B
Biding my time, biding my time
                     C#m
Waiting for you here
                   A
Biding my time here



Solo
e--------------------------------------------------------------------|
B------4/5-------4/5-5-7-5-4------------4-4-5-4---5-5----------------|
G----------4 4---------------4 4^6 4------------6--------------------|
D--------------------------------------------------------------------|
A--------------------------------------------------------------------|
E--------------------------------------------------------------------|



e--------------------------------------------------------------------|
B------------------5-5-----------------------------------------------|
G-------6-6-6-4-6------------4^6-4-----------------------------------|
D------------------------6----------7-6---6--------------------------|
A--------------------------------------7----7------------------------|
E--------------------------------------------------------------------|


Chorus

E
I could tell you stories
E
Could you teach me some more?
A
Iíll tell you boutí the countries
A
Youíve never been before

E
Iíll go on forever
E
Forever in a day
A
Until you lose the interest
A
Right then I walk away

    C#m
So I wonít let that happen
E
While we both belong
B
I can be the singer
B
you can be the song

E                            B
Iíll be waiting for you here
                             C#m
When you come calling
            A
Iíll be waiting
	E                        B
Biding my time, biding my time
                     C#m
Waiting for you here
                   A
Biding my time here
	E                        B
Biding my time, biding my time
                     C#m
Waiting for you here
                   A
Biding my time here

	E                        B
Biding my time, biding my time
                     C#m
Waiting for you here
                   A
Biding my time here
Tap to rate this tab
# A B C D E F G H I J K L M N O P Q R S T U V W X Y Z