Song name
# A B C D E F G H I J K L M N O P Q R S T U V W X Y Z

Bush - Old tab

            
            
            Song: Old 
            Band: Bush 
            Album: X-Games sndtrk. 
            Tabbed By: Gill with a G 
            
            Intro/Verse: 
            e|------------------------------- 
            b|------------------------------- 
            g|-6-6-X--9-9-X------------------ 
            d|-6-6-X--9-9-X--9-9-X--7--7-X--- 
            a|-4-4-X--7-7-X--9-9-X--7--7-X--- 
            E|-------------------7-7-X--5--5-X--- 
            
            another guitar plays this at some point in the intro 
            
            Intro/various fills 
            e|----------------------------- 
            b|-14-14-14-14-14-14-14-14----- 
            g|----------------------------- 
            d|-11-11-11-11-11-11-11-11----- 
            a|----------------------------- 
            E|----------------------------- 
            
            Chorus: 
            e|------------------------------- 
            b|------------------------------- 
            g|----------6-6-X------------------ 
            d|-9-9-X--6-6-X--7-7-X--2--2-X--- 
            a|-9-9-X--4-4-X--7-7-X--2--2-X--- 
            E|-7-7-X-----------5-5-X--0--0-X--- 
            
            Interlude 
            "Every day, giving yourself away"........ 
            e|------------------------------------------------ 
            b|------------------------------------------------ 
            g|------------------------------------------------ 
            d|-13~~~~-13//11--6~~~~--6///8---13~~~~~--13///8-- 
            a|-11~~~~-11///9--4~~~~--4///6---11~~~~~--11///6-- 
            E|------------------------------------------------ 
            
            then play the intro part. 
            
            End playing the chorus 
            
            
            
            
            
            
            
            
             
                                SEARCH: Tripod The Web 
                                  
                        
            

Tap to rate this tab
# A B C D E F G H I J K L M N O P Q R S T U V W X Y Z