Song name
# A B C D E F G H I J K L M N O P Q R S T U V W X Y Z

Bush - Body tab

the solo starts really close 4:00 
Song:Body
Band:Bush
Album:Sixteen Stone

e|----------------|
B|----8b(let ring)|
D|--8-8b----------|
A|----------------|
E|----------------|

e|------------------|
B|----8b-7b---------|
G|--8-8b-7b(let ring)
D|------------------|
A|------------------|
E|------------------|

e|----------------|
B|----8b(let ring)|
D|--8-8b----------|
A|----------------|
E|----------------|

e|------------------|
B|----8b-7b---------|
G|--8-8b-7b(let ring)
D|------------------|
A|------------------|
E|------------------|

e|--------------------------------------|
B|--------------------------------------|
G|-2-2-2-2-2-2-2-2-2-2-2-2-2-2-2-2-4b5--|
D|--------------------------------------|
A|--------------------------------------|
E|--------------------------------------|repeat while guitar does this

e|----------------------------------------|after first time
B|--10-10-10-10-10-10-8-8-8-8-8-8-12b-12b-|
G|----------------------------------------|
D|----------------------------------------|
A|----------------------------------------|
E|----------------------------------------|play twice(2nd time alone)
Tap to rate this tab
# A B C D E F G H I J K L M N O P Q R S T U V W X Y Z