Song name
# A B C D E F G H I J K L M N O P Q R S T U V W X Y Z

Bush - People That We Love tab

Help us improve GuitareTab! Take a short survey!
Here's the intro to the song. Bush uses two guitars for it, but if you're 
like my band and only have one guitar, I will also include how we play it 
while maintaining as much of the sound as possible. A quick shout out to my 
guitarist, Tempestfall7, who played it and gave it his approval.

Guitar 1 Part 1  (8th notes)
E|-17--17--17--17--|17--17--17--17---|
B|-----------------|-----------------|
D|---14--14--14--14|--14--14--14--14-|
G|-----------------|-----------------|  x 2
A|-----------------|-----------------|
E|-----------------|-----------------|

Guitar 1 Part 2 Rest for the first half beat.  (8th notes)
E|-------------------------|----------------------------|
B|-------------------------|----------------------------|
D|-------------------------|----------------------------|
G|----7--7--7--2--2--2--2--|--10--10--10--10--7--5--7--7|
A|----7--7--7--2--2--2--2--|--10--10--10--10--7--5--7--7|
E|----5--5--5--0--0--0--0--|--8---8---8---8---5--3--5--5|

Part 1 x2
Part 2 x4 - The last chord carries over to the first to next measure when 
repeating this section.

Guitar 2 Part 1 Rest for the first half beat. (8th notes)
E|------------------------------|--------------------------------|
B|------------------------------|-------------------------13-----|
D|----14----------14---------14-|---------14------12--14------14-| x 6
G|--------14--14------14--14----|-14--14------14-----------------|
A|------------------------------|--------------------------------|
E|------------------------------|--------------------------------|

Guitar 2 Part 2 Rest for first half beat. (16th notes)
E----------------------------------|---------------------------------|
B------4-4-4-4-4-4-4-4-4-4-4-4-4-4-|-4/5-5-5-5-5-5-5-5-5-5-5-5-5-5-5-|
D----------------------------------|---------------------------------|
G----------------------------------|---------------------------------| x2
A----------------------------------|---------------------------------|
E----------------------------------|---------------------------------|

Now here's how to play the intro if you only have one guitar.  Since the 
bass plays the root notes of the chords, you can get away with not playing 
the chords the second time.
 
Guitar 1 Part 1 x 2
Guitar 1 Part 2
Guitar 1 Part 1 x 2
Guitar 2 Part 1 x 2
Guitar 2 Part 2 x 2 
Related for People That We Love tab