Song name
# A B C D E F G H I J K L M N O P Q R S T U V W X Y Z

Bush - People That We Love tab

This is how I play The People That We Love by Bush.
I included a second guitar part for when I have someone else to play it along with me.
I know it's not perfect, but I think it sounds pretty good and that's what people 
have told me too.
Also, this is my first tab so questions, comments, and smart remarks are welcomed.
-------------------------------------------------------------------------------
			     The People That We Love - Bush
-------------------------------------------------------------------------------
Tabbed by: Stephen Sovis
Email: iceman6391@gmail.com

Tuning: Standard (EADGBe)

Guitar 1
e|-5-----5-----5-----5-----5-8-5-5-----5-----5-----5-----5-8-5-5-|
B|---4-4---4-4---4-4---5-5---------4-4---4-4---4-4---5-5---------|
G|---------------------------------------------------------------| 
D|---------------------------------------------------------------|
A|---------------------------------------------------------------|
E|---------------------------------------------------------------|

Guitar 1
e|-5-----5-----5-----5-----5-8-5-5-----5-----5-----5-----5-8-5-5-|
B|---4-4---4-4---4-4---5-5---------4-4---4-4---4-4---5-5---------|
G|---------------------------------------------------------------| 
D|---------------------------------------------------------------|
A|---------------------------------------------------------------|
E|---------------------------------------------------------------|
Guitar 2
e|---------------------------------------------------------------|
B|---------------------------------------------------------------|
G|---------------5-5-5-5-----------------------------------------|
D|-7-7-7-2-2-2-2-5-5-5-5-7\5-7-7---------------------------------|
A|-7-7-7-2-2-2-2-3-3-3-3-7\5-7-7---------------------------------|
E|-5-5-5-0-0-0-0---------5\3-5-5---------------------------------|

Guitar 1
e|-5-----5-----5-----5-----5-8-5-5-----5-----5-----5-----5-8-5-5-|
B|---4-4---4-4---4-4---5-5---------4-4---4-4---4-4---5-5---------|
G|---------------------------------------------------------------| 
D|---------------------------------------------------------------|
A|---------------------------------------------------------------|
E|---------------------------------------------------------------|
Guitar 2
e|---------------------------------------------------------------|
B|---------------------------------------------------------------|
G|---------------5-5-5-5-------------------------5-5-5-5---------|
D|-7-7-7-2-2-2-2-5-5-5-5-7\5-7-7---7-7-7-2-2-2-2-5-5-5-5-7\5-7-7-|
A|-7-7-7-2-2-2-2-3-3-3-3-7\5-7-7---7-7-7-2-2-2-2-3-3-3-3-7\5-7-7-|
E|-5-5-5-0-0-0-0---------5\3-5-5---5-5-5-0-0-0-0---------5\3-5-5-|

Guitar 1
e|---------------------------------------------------------------|
B|44-4-4-4-4-4-4-4455555555555555-44-4-4-4-4-4-4-4455555555555555|
G|---------------------------------------------------------------|
D|---------------------------------------------------------------|
A|---------------------------------------------------------------|
E|---------------------------------------------------------------|
Guitar 2
e|---------------------------------------------------------------|
B|---------------------------------------------------------------|
G|---------------5-5-5-5-------------------------5-5-5-5---------|
D|-7-7-7-2-2-2-2-5-5-5-5-7\5-7-7---7-7-7-2-2-2-2-5-5-5-5-7\5-7-7-|
A|-7-7-7-2-2-2-2-3-3-3-3-7\5-7-7---7-7-7-2-2-2-2-3-3-3-3-7\5-7-7-|
E|-5-5-5-0-0-0-0---------5\3-5-5---5-5-5-0-0-0-0---------5\3-5-5-|

Guitar 1
e|---------------------------------------------------------------|
B|---------------------------------------------------------------|
G|---------------5-5-5-5-------------------------5-5-5-5---------|
D|-7-7-7-2-2-2-2-5-5-5-5-7\5-7-7---7-7-7-2-2-2-2-5-5-5-5-7\5-7-7-| X2
A|-7-7-7-2-2-2-2-3-3-3-3-7\5-7-7---7-7-7-2-2-2-2-3-3-3-3-7\5-7-7-|
E|-5-5-5-0-0-0-0---------5\3-5-5---5-5-5-0-0-0-0---------5\3-5-5-|
 PM. . . . . . . . . . . . . . .   . . . . . . . . . . . . . . .

Guitar 1
e|---------------------------------------------------------------|
B|44-4-4-4-4-4-4-4455555555555555-44-4-4-4-4-4-4-4455555555555555|
G|---------------------------------------------------------------|
D|---------------------------------------------------------------|
A|---------------------------------------------------------------|
E|---------------------------------------------------------------|
Guitar 2
e|---------------------------------------------------------------|
B|---------------------------------------------------------------|
G|---------------5-5-5-5-------------------------5-5-5-5---------|
D|-7-7-7-2-2-2-2-5-5-5-5-7\5-7-7---7-7-7-2-2-2-2-5-5-5-5-7\5-7-7-|
A|-7-7-7-2-2-2-2-3-3-3-3-7\5-7-7---7-7-7-2-2-2-2-3-3-3-3-7\5-7-7-|
E|-5-5-5-0-0-0-0---------5\3-5-5---5-5-5-0-0-0-0---------5\3-5-5-|

Guitar 1
e|---------------------------------------------------------------|
B|---------------------------------------------------------------|
G|---------------5-5-5-5-------------------------5-5-5-5---------|
D|-7-7-7-2-2-2-2-5-5-5-5-7\5-7-7---7-7-7-2-2-2-2-5-5-5-5-7\5-7-7-| X2
A|-7-7-7-2-2-2-2-3-3-3-3-7\5-7-7---7-7-7-2-2-2-2-3-3-3-3-7\5-7-7-|
E|-5-5-5-0-0-0-0---------5\3-5-5---5-5-5-0-0-0-0---------5\3-5-5-|
 PM. . . . . . . . . . . . . . .   . . . . . . . . . . . . . . .

Guitar 1
e|---------------------------------------------------------------|
B|44-4-4-4-4-4-4-4455555555555555-44-4-4-4-4-4-4-4455555555555555|
G|---------------------------------------------------------------|
D|---------------------------------------------------------------|X2
A|---------------------------------------------------------------|
E|---------------------------------------------------------------|
Guitar 2
e|---------------------------------------------------------------|
B|---------------------------------------------------------------|
G|---------------5-5-5-5-------------------------5-5-5-5---------|
D|-7-7-7-2-2-2-2-5-5-5-5-7\5-7-7---7-7-7-2-2-2-2-5-5-5-5-7\5-7-7-|X2
A|-7-7-7-2-2-2-2-3-3-3-3-7\5-7-7---7-7-7-2-2-2-2-3-3-3-3-7\5-7-7-|
E|-5-5-5-0-0-0-0---------5\3-5-5---5-5-5-0-0-0-0---------5\3-5-5-|

Guitar 1
e|----------------------------------------------------------------|
B|----------------------------------------------------------------|
G|----------------------------------------------------------------|
D|1010101010101010101010101010101014141414141414141414141414141414|
A|8-8-8-8-8-8-8-8-8-8-8-8-8-8-8-8-12121212121212121212121212121212|
E|----------------------------------------------------------------|
PM. . . . . . . . . . . . . . . . 
Guitar 2
e|---------------------------------------------------------------|
B|---------------------------------------------------------------|
G|---------------------------------------------------------------|
D|3-3-3-3-3-3-3-3-3-3-3-3-3-3-3-3/7-7-7-7-7-7-7-7-7-7-7-7-7-7-7-7|
A|3-3-3-3-3-3-3-3-3-3-3-3-3-3-3-3/7-7-7-7-7-7-7-7-7-7-7-7-7-7-7-7|
E|1-1-1-1-1-1-1-1-1-1-1-1-1-1-1-1/5-5-5-5-5-5-5-5-5-5-5-5-5-5-5-5|
PM. . . . . . . . . . . . . . . . . . . . . . . . . . . 
(Gradually let up on the palm mute toward the end here ^)

Guitar 1
e|----------------------------------------------------------------|
B|----------------------------------------------------------------|
G|--------------------------------12--12--1212--11--121114--121112|
D|1010101010101010101010101010101010--10--1010--9---109-12--109-10|
A|8-8-8-8-8-8-8-8-8-8-8-8-8-8-8-8---------------------------------|
E|----------------------------------------------------------------| 
Guitar 2
e|---------------------------------------------------------------|
B|---------------------------------------------------------------|
G|--------------------------------5---5---5-5---4---5\4-7---5\4/5|
D|3-3-3-3-3-3-3-3-3-3-3-3-3-3-3-3-5---5---5-5---4---5\4-7---5\4/5|
A|3-3-3-3-3-3-3-3-3-3-3-3-3-3-3-3-3---3---3-3---2---3\2-5---3\2/3|
E|1-1-1-1-1-1-1-1-1-1-1-1-1-1-1-1--------------------------------|

Guitar 1
e|----------------------------------------------------------------|
B|----------------------------------------------------------------|
G|----------------------------------------------------------------|
D|1010101010101010101010101010101014141414141414141414141414141414|
A|8-8-8-8-8-8-8-8-8-8-8-8-8-8-8-8-12121212121212121212121212121212|
E|----------------------------------------------------------------|
Guitar 2
e|---------------------------------------------------------------|
B|---------------------------------------------------------------|
G|---------------------------------------------------------------|
D|3-3-3-3-3-3-3-3-3-3-3-3-3-3-3-3/7-7-7-7-7-7-7-7-7-7-7-7-7-7-7-7|
A|3-3-3-3-3-3-3-3-3-3-3-3-3-3-3-3/7-7-7-7-7-7-7-7-7-7-7-7-7-7-7-7|
E|1-1-1-1-1-1-1-1-1-1-1-1-1-1-1-1/5-5-5-5-5-5-5-5-5-5-5-5-5-5-5-5|

Guitar 1
e|----------------------------------------------------------------|
B|----------------------------------------------------------------|
G|--------------------------------12--12--1212--11--121114--121112|
D|1010101010101010101010101010101010--10--1010--9---109-12--109-10|
A|8-8-8-8-8-8-8-8-8-8-8-8-8-8-8-8---------------------------------|
E|----------------------------------------------------------------| 
Guitar 2
e|---------------------------------------------------------------|
B|---------------------------------------------------------------|
G|--------------------------------5---5---5-5---4---5\4-7---5\4/5|
D|3-3-3-3-3-3-3-3-3-3-3-3-3-3-3-3-5---5---5-5---4---5\4-7---5\4/5|
A|3-3-3-3-3-3-3-3-3-3-3-3-3-3-3-3-3---3---3-3---2---3\2-5---3\2/3|
E|1-1-1-1-1-1-1-1-1-1-1-1-1-1-1-1--------------------------------|

Guitar 1
e|---------------------------------------------------------------|
B|--------------------------------44-4-4-4-4-4-4-4455555555555555|
G|---------------------------------------------------------------|
D|---------------------------------------------------------------|
A|---------------------------------------------------------------|
E|---------------------------------------------------------------|
Guitar 2
e|---------------------------------------------------------------|
B|---------------------------------------------------------------|
G|---------------5-5-5-5-------------------------5-5-5-5---------|
D|-7-7-7-2-2-2-2-5-5-5-5-7\5-7-7---7-7-7-2-2-2-2-5-5-5-5-7\5-7-7-|
A|-7-7-7-2-2-2-2-3-3-3-3-7\5-7-7---7-7-7-2-2-2-2-3-3-3-3-7\5-7-7-|
E|-5-5-5-0-0-0-0---------5\3-5-5---5-5-5-0-0-0-0---------5\3-5-5-|

Guitar 1
e|---------------------------------------------------------------|
B|44-4-4-4-4-4-4-4455555555555555-44-4-4-4-4-4-4-4455555555555555|
G|---------------------------------------------------------------|
D|---------------------------------------------------------------|
A|---------------------------------------------------------------|
E|---------------------------------------------------------------|
Guitar 2
e|---------------------------------------------------------------|
B|---------------------------------------------------------------|
G|---------------5-5-5-5-------------------------5-5-5-5---------|
D|-7-7-7-2-2-2-2-5-5-5-5-7\5-7-7---7-7-7-2-2-2-2-5-5-5-5-7\5-7-7-|
A|-7-7-7-2-2-2-2-3-3-3-3-7\5-7-7---7-7-7-2-2-2-2-3-3-3-3-7\5-7-7-|
E|-5-5-5-0-0-0-0---------5\3-5-5---5-5-5-0-0-0-0---------5\3-5-5-|

Guitar 1
e|---------------------------------------------------------------|
B|---------------------------------------------------------------|
G|---------------5-5-5-5-------------------------5-5-5-5---------|
D|-7-7-7-2-2-2-2-5-5-5-5-7\5-7-7---7-7-7-2-2-2-2-5-5-5-5-7\5-7-7-| X2
A|-7-7-7-2-2-2-2-3-3-3-3-7\5-7-7---7-7-7-2-2-2-2-3-3-3-3-7\5-7-7-|
E|-5-5-5-0-0-0-0---------5\3-5-5---5-5-5-0-0-0-0---------5\3-5-5-|
 PM. . . . . . . . . . . . . . .   . . . . . . . . . . . . . . .

Guitar 1
e|---------------------------------------------------------------|
B|44-4-4-4-4-4-4-4455555555555555-44-4-4-4-4-4-4-4455555555555555|
G|---------------------------------------------------------------|
D|---------------------------------------------------------------|X2
A|---------------------------------------------------------------|
E|---------------------------------------------------------------|
Guitar 2
e|---------------------------------------------------------------|
B|---------------------------------------------------------------|
G|---------------5-5-5-5-------------------------5-5-5-5---------|
D|-7-7-7-2-2-2-2-5-5-5-5-7\5-7-7---7-7-7-2-2-2-2-5-5-5-5-7\5-7-7-|X2
A|-7-7-7-2-2-2-2-3-3-3-3-7\5-7-7---7-7-7-2-2-2-2-3-3-3-3-7\5-7-7-|
E|-5-5-5-0-0-0-0---------5\3-5-5---5-5-5-0-0-0-0---------5\3-5-5-|

Guitar 1
e|----------------------------------------------------------------|
B|----------------------------------------------------------------|
G|----------------------------------------------------------------|
D|1010101010101010101010101010101014141414141414141414141414141414|
A|8-8-8-8-8-8-8-8-8-8-8-8-8-8-8-8-12121212121212121212121212121212|
E|----------------------------------------------------------------|
PM. . . . . . . . . . . . . . . . 
Guitar 2
e|---------------------------------------------------------------|
B|---------------------------------------------------------------|
G|---------------------------------------------------------------|
D|3-3-3-3-3-3-3-3-3-3-3-3-3-3-3-3/7-7-7-7-7-7-7-7-7-7-7-7-7-7-7-7|
A|3-3-3-3-3-3-3-3-3-3-3-3-3-3-3-3/7-7-7-7-7-7-7-7-7-7-7-7-7-7-7-7|
E|1-1-1-1-1-1-1-1-1-1-1-1-1-1-1-1/5-5-5-5-5-5-5-5-5-5-5-5-5-5-5-5|
PM. . . . . . . . . . . . . . . . . . . . . . . . . . . 
(Gradually let up on the palm mute toward the end here ^)

Guitar 1
e|----------------------------------------------------------------|
B|----------------------------------------------------------------|
G|--------------------------------12--12--1212--11--121114--121112|
D|1010101010101010101010101010101010--10--1010--9---109-12--109-10|
A|8-8-8-8-8-8-8-8-8-8-8-8-8-8-8-8---------------------------------|
E|----------------------------------------------------------------| 
Guitar 2
e|---------------------------------------------------------------|
B|---------------------------------------------------------------|
G|--------------------------------5---5---5-5---4---5\4-7---5\4/5|
D|3-3-3-3-3-3-3-3-3-3-3-3-3-3-3-3-5---5---5-5---4---5\4-7---5\4/5|
A|3-3-3-3-3-3-3-3-3-3-3-3-3-3-3-3-3---3---3-3---2---3\2-5---3\2/3|
E|1-1-1-1-1-1-1-1-1-1-1-1-1-1-1-1--------------------------------|

Guitar 1
e|----------------------------------------------------------------|
B|----------------------------------------------------------------|
G|----------------------------------------------------------------|
D|1010101010101010101010101010101014141414141414141414141414141414|
A|8-8-8-8-8-8-8-8-8-8-8-8-8-8-8-8-12121212121212121212121212121212|
E|----------------------------------------------------------------|
Guitar 2
e|---------------------------------------------------------------|
B|---------------------------------------------------------------|
G|---------------------------------------------------------------|
D|3-3-3-3-3-3-3-3-3-3-3-3-3-3-3-3/7-7-7-7-7-7-7-7-7-7-7-7-7-7-7-7|
A|3-3-3-3-3-3-3-3-3-3-3-3-3-3-3-3/7-7-7-7-7-7-7-7-7-7-7-7-7-7-7-7|
E|1-1-1-1-1-1-1-1-1-1-1-1-1-1-1-1/5-5-5-5-5-5-5-5-5-5-5-5-5-5-5-5|

Guitar 1
e|----------------------------------------------------------------|
B|----------------------------------------------------------------|
G|--------------------------------12--12--1212--11--121114--121112|
D|1010101010101010101010101010101010--10--1010--9---109-12--109-10|
A|8-8-8-8-8-8-8-8-8-8-8-8-8-8-8-8---------------------------------|
E|----------------------------------------------------------------| 
Guitar 2
e|---------------------------------------------------------------|
B|---------------------------------------------------------------|
G|--------------------------------5---5---5-5---4---5\4-7---5\4/5|
D|3-3-3-3-3-3-3-3-3-3-3-3-3-3-3-3-5---5---5-5---4---5\4-7---5\4/5|
A|3-3-3-3-3-3-3-3-3-3-3-3-3-3-3-3-3---3---3-3---2---3\2-5---3\2/3|
E|1-1-1-1-1-1-1-1-1-1-1-1-1-1-1-1--------------------------------|

Guitar 1
e|---------------------------------------------------------------|
B|---------------------------------------------------------------|
G|---------------------------------------------------------------|
D|-7-----2-----5-----7-------------------------------------------|
A|-7-----2-----5-----7-------------------------------------------|
E|-5-----0-----3-----5-------------------------------------------|

Guitar 1
e|---------------------------------------------------------------|
B|---------------------------------------------------------------|
G|------------5--------------------------------5-----------------|
D|7-----2-----5-----7-----5/7------7-----2-----5-----7-----5/7---|X2
A|7-----2-----3-----7-----5/7------7-----2-----3-----7-----5/7---|
E|5-----0-----------5-----3/5------5-----0-----------5-----3/5---|


Guitar 1
e|----------------17----17----17----17----17----17----17----17---|
B|-------------------14----14----14----14----14----14----14----14|
G|---------------------------------------------------------------| 
D|---------------------------------------------------------------|
A|---------------------------------------------------------------|
E|---------------------------------------------------------------|
Guitar 2
e|---------------------------------------------------------------|
B|---------------------------------------------------------------|
G|---------------------------------------------------------------|
D|-7-----2-----5-------------------------------------------------|
A|-7-----2-----5-------------------------------------------------|
E|-5-----0-----3-------------------------------------------------|

Guitar 1
e|---------------------------------------------------------------|
B|-16~~~~~~~~~~~~17~~~~~~~~~~~~----------------------------------|
G|---------------------------------------------------------------|
D|---------------------------------------------12b+--------------|
A|--------------------------------12~~~~~~~~~~~------------------|
E|---------------------------------------------------------------|
Guitar 2
e|---------------------------------------------------------------|
B|---------------------------------------------------------------|
G|---------------5-5-5-5-------------------------5-5-5-5---------|
D|-7-7-7-2-2-2-2-5-5-5-5-7\5-7-7---7-7-7-2-2-2-2-5-5-5-5-7\5-7-7-|
A|-7-7-7-2-2-2-2-3-3-3-3-7\5-7-7---7-7-7-2-2-2-2-3-3-3-3-7\5-7-7-|
E|-5-5-5-0-0-0-0---------5\3-5-5---5-5-5-0-0-0-0---------5\3-5-5-|

Guitar 1
e|---------------------------------------------------------------|
B|---------------------------------------------------------------|
G|---------------------------------------------------------------|
D|----------------------------12b-----------------------------12b|
A|12~~~~~~~~~14-15---14-12-14-----12~~~~~~~~~14-15---14-12-14----|
E|---------------------------------------------------------------|
Guitar 2
e|---------------------------------------------------------------|
B|---------------------------------------------------------------|
G|---------------5-5-5-5-------------------------5-5-5-5---------|
D|-7-7-7-2-2-2-2-5-5-5-5-7\5-7-7---7-7-7-2-2-2-2-5-5-5-5-7\5-7-7-|
A|-7-7-7-2-2-2-2-3-3-3-3-7\5-7-7---7-7-7-2-2-2-2-3-3-3-3-7\5-7-7-|
E|-5-5-5-0-0-0-0---------5\3-5-5---5-5-5-0-0-0-0---------5\3-5-5-|

Guitar 1
e|---------------------------------------------------------------|
B|-----------------------------------------------13131313--------|
G|14+----------12---14--12-14-14---1414149-9-9-9-1212121214121414|
D|---------------------------------1414149-9-9-9---------14121414|
A|---------------------------------------------------------------|
E|---------------------------------------------------------------|
Guitar 2
e|---------------------------------------------------------------|
B|---------------------------------------------------------------|
G|---------------5-5-5-5-------------------------5-5-5-5---------|
D|-7-7-7-2-2-2-2-5-5-5-5-7\5-7-7---7-7-7-2-2-2-2-5-5-5-5-7\5-7-7-|
A|-7-7-7-2-2-2-2-3-3-3-3-7\5-7-7---7-7-7-2-2-2-2-3-3-3-3-7\5-7-7-|
E|-5-5-5-0-0-0-0---------5\3-5-5---5-5-5-0-0-0-0---------5\3-5-5-|

Guitar 1
e|---------------------------------------------------------------|
B|--------------13131313-------------------------13131313--------|
G|1414149-9-9-9-1212121214121414---1414149-9-9-9-1212121214121414|
D|1414149-9-9-9---------14121414---1414149-9-9-9---------14121414|
A|---------------------------------------------------------------|
E|---------------------------------------------------------------|
Guitar 2
e|---------------------------------------------------------------|
B|---------------------------------------------------------------|
G|---------------5-5-5-5-------------------------5-5-5-5---------|
D|-7-7-7-2-2-2-2-5-5-5-5-7\5-7-7---7-7-7-2-2-2-2-5-5-5-5-7\5-7-7-|
A|-7-7-7-2-2-2-2-3-3-3-3-7\5-7-7---7-7-7-2-2-2-2-3-3-3-3-7\5-7-7-|
E|-5-5-5-0-0-0-0---------5\3-5-5---5-5-5-0-0-0-0---------5\3-5-5-|

Guitar 1
e|---------------------------------------------------------------|
B|---------------------------------------------------------------|
G|---------------------------------------------------------------|
D|-7-----2-----5-------------------------------------------------|
A|-7-----2-----5-------------------------------------------------|
E|-5-----0-----3-------------------------------------------------|

************************************

| /   slide up
| \   slide down
| h   hammer-on
| p   pull-off
| ~   vibrato
| +   harmonic
| x   Mute note
| b   Bend
| pb  Pre-bend
| br  Bend release
| pbr Pre-bend release
| brb Bend release bend

************************************
Tap to rate this tab
 
# A B C D E F G H I J K L M N O P Q R S T U V W X Y Z