Song name
# A B C D E F G H I J K L M N O P Q R S T U V W X Y Z

Bush - Speed Kills tab

the intro is weird... 
like if 3 or more guitars would play at one point
It's a simple song. I think everyone can figure out 
what is what.

e|------------------------------8------|
B|--10--10--10--10--10--10--10---10----|
G|----8---8---8---8---8---8---9--------|
D|-------------------------------------|
A|-------------------------------------|
E|-------------------------------------|

e|-------------------------------------|
B|-------------------------------------|
G|----8-8----8-8----8-8-8-8-9----------|
D|-------------------------------------|
A|-------------------------------------|
E|-------------------------------------|

e|-0-0-0-0-0-0-0-0-0-0-0-0-0-0-0-------|
B|-4-4-4-4-4-4-4-5-5-5-5-5-5-4-5-------|
G|-------------------------------------|
D|-------------------------------------|
A|-------------------------------------|
E|-------------------------------------|

.....................................................

e|---------------------------------------------|
B|---------------------------------------------|
G|---------------------------------------------|
D|-7-7-7-2-2-2-10-10-10--7-7-5-5/7-------------|
A|-7-7-7-2-2-2-10-10-10--7-7-5-5/7-------------|
E|-5-5-5-0-0-0--8--8--8--5-5-3-3/5-------------|

.....................................................

E|--------------------------------------------------------------|
B|--------------------------------------------------------------|
G|--------------------------------------------------------------|
D|-3--(x16)--7--(x16)---1-(x16)---10-10-1010-10-10-10-10-10-----|
A|-3---------7----------3---------10-10-1010-10-10-10-10-10-----|
E|-1---------5----------3---------8--8--8 8--8--7--7--7--7------|

e|------------------------|
B|------------------------|
G|------------------------|
D|--7--2--10--7--5-7------|
A|--7--2--10--7--5-7------|
E|--5--0--8---5--3-5------|

.....................................................

E|-----------------------------------------------------------------------------|
B|--15b16----------------------------------------------------------------------|
G|-----------------------------------------------------------------------------|
D|-----------12/14b-------------------------14b-------------------------14b----|
A|--------12b-------12-14-14b15b14-12-14-12-----12-14-14b15b14-12-14-12--------|
E|-----------------------------------------------------------------------------|


Tap to rate this tab
 
# A B C D E F G H I J K L M N O P Q R S T U V W X Y Z