Song name
# A B C D E F G H I J K L M N O P Q R S T U V W X Y Z

Bush - The People That We Love tab

Bush - The People That We Love
                              By Harvester Of Sorrow (rich_bagnall@hotmail.com)

-|5---5----5----5----5----5----5----5----5----5----5---5---8---5---8--------|-
-|4---4----4----4----4----4----4----4----5----5----5---5---5---5---5--------|-
-|--------------------------------------------------------------------------|-
-|--------------------------------------------------------------------------|-
-|--------------------------------------------------------------------------|-
-|--------------------------------------------------------------------------|-
  Guitar 1^ Intro                                                             

-|--------------------------------------------------------------------------|-
-|--------------------------------------------------------------------------|-
-|--------------------------------------------------------------------------|-
-|7--7--7----2--2--2--2----10--10--10--10----7----5----7--7-----------------|-
-|7--7--7----2--2--2--2----10--10--10--10----7----5----7--7-----------------|-
-|7--7--7----2--2--2--2----10--10--10--10----7----5----7--7-----------------|-
  Guitar 2^                                                                   

-|--------------------------------------------------------------------------|-
-|--------------------------------------------------------------------------|-
-|--------------------------------------------------------------------------|-
-|7--7--7----2--2--2--2----10--10--10--10----7----5----7--7-----------------|-
-|7--7--7----2--2--2--2----10--10--10--10----7----5----7--7-----------------|-
-|7--7--7----2--2--2--2----10--10--10--10----7----5----7--7-----------------|-
  verse guitar 2  (Palm muted)                                                

-|5--5--5--5--5--5--5--5----5--5--5--5--5--5--5--5--------------------------|-
-|4--4--4--4--4--4--4--4----5--5--5--5--5--5--5--5--------------------------|-
-|--------------------------------------------------------------------------|-
-|--------------------------------------------------------------------------|-
-|--------------------------------------------------------------------------|-
-|--------------------------------------------------------------------------|-
  Guitar 1 after guitar 2                                                     

-|0--0--0--0--0--0--0--0----0--0--0--0--0--0--0--0--------------------------|-
-|4--4--4--4--4--4--4--4----5--5--5--5--5--5--5--5--------------------------|-
-|--------------------------------------------------------------------------|-
-|--------------------------------------------------------------------------|-
-|--------------------------------------------------------------------------|-
-|--------------------------------------------------------------------------|-
  after the verse (guitar 1)                                                  

-|--------------------------------------------------------------------------|-
-|--------------------------------------------------------------------------|-
-|--------------------------------------------------------------------------|-
-|7--7--7----14--14--14--14----10--10--10--10----7----5----7--7-------------|-
-|7--7--7----14--14--14--14----10--10--10--10----7----5----7--7-------------|-
-|7--7--7----14--14--14--14----10--10--10--10----7----5----7--7-------------|-
  after verse (guitar 2)                                                      

-|0--0--0--0--0--0--0--0----0--0--0--0--0--0--0--0--------------------------|-
-|4--4--4--4--4--4--4--4----5--5--5--5--5--5--5--5--------------------------|-
-|--------------------------------------------------------------------------|-
-|--------------------------------------------------------------------------|-
-|--------------------------------------------------------------------------|-
-|--------------------------------------------------------------------------|-
  Chorus guitar 1                                                             

-|--------------------------------------------------------------------------|-
-|--------------------------------------------------------------------------|-
-|--------------------------------------------------------------------------|-
-|7--7--7----14--14--14--14----10--10--10--10----7----5----7--7-------------|-
-|7--7--7----14--14--14--14----10--10--10--10----7----5----7--7-------------|-
-|7--7--7----14--14--14--14----10--10--10--10----7----5----7--7-------------|-
  Chorus guitar 2                                                             

-|--------------------------------------------------------------------------|-
-|--------------------------------------------------------------------------|-
-|--------------------------------------------------------------------------|-
-|3--3--3--3--3--3--3--3--3--3--3--3--3--3--3--3----------------------------|-
-|3--3--3--3--3--3--3--3--3--3--3--3--3--3--3--3----------------------------|-
-|3--3--3--3--3--3--3--3--3--3--3--3--3--3--3--3----------------------------|-
                                                                              

-|--------------------------------------------------------------------------|-
-|--------------------------------------------------------------------------|-
-|--------------------------------------------------------------------------|-
-|7--7--7--7--7--7--7--7--7--7--7--7--7--7--7--7----------------------------|-
-|7--7--7--7--7--7--7--7--7--7--7--7--7--7--7--7----------------------------|-
-|7--7--7--7--7--7--7--7--7--7--7--7--7--7--7--7----------------------------|-
                                                                              

-|--------------------------------------------------------------------------|-
-|--------------------------------------------------------------------------|-
-|--------------------------------------------------------------------------|-
-|10--10--10--10--10--10----9--9--9--9--9--9--9--9--------------------------|-
-|10--10--10--10--10--10----9--9--9--9--9--9--9--9--------------------------|-
-|10--10--10--10--10--10----9--9--9--9--9--9--9--9--------------------------|-
  Guitar 2  (all three)after chorus                                           

-|--------------------------------------------------------------------------|-
-|--------------------------------------------------------------------------|-
-|--------------------------------------------------------------------------|-
-|7----2----9----7----------------------------------------------------------|-
-|7----2----9----7----------------------------------------------------------|-
-|7----2----9----7----------------------------------------------------------|-
                                                                              

-|--------------------------------------------------------------------------|-
-|--------------------------------------------------------------------------|-
-|--------------------------------------------------------------------------|-
-|7----2----9---------------------------------------------------------------|-
-|7----2----9---------------------------------------------------------------|-
-|7----2----9---------------------------------------------------------------|-
Tap to rate this tab
# A B C D E F G H I J K L M N O P Q R S T U V W X Y Z