Song name
# A B C D E F G H I J K L M N O P Q R S T U V W X Y Z

Bush - Cemicals Between Us tab

-Normal Tuning-


Verse:
--x-------x-----     do    ----x----
--x-------x-----   this    ----x----
--4-------7-----   every   ----9----
--x-------x-----   other   ----x----
--2-------5-----   time->  ----7----
--x-------x-----           ----x----

Course:
Do each cord 8 times 

|--------------------|
|--------------------|
|-14----5------------|    <--- x2
|-14----5----5-------|
|-12----3----5-------|
|------------3-------|

& then just go back to the verse and then do the course again
Tap to rate this tab
 
# A B C D E F G H I J K L M N O P Q R S T U V W X Y Z