Song name
# A B C D E F G H I J K L M N O P Q R S T U V W X Y Z

Bush - Body tab

BAND: Bush
SONG: Body
CD: Sixteen Stone

Intro:

------------------------------|
------------------------------|
------0ho2-2~~~-----0ho2-2~~~-|
-0ho2----------0ho2-----------|
------------------------------|
------------------------------|

----------------------------------------------------|
----------------------------------------------------|
------0ho2-2-0ho2-2-2-0ho2-2------0ho2-2-0ho2-2-0---|
-0ho2------------------------0ho2-----------------2-|
----------------------------------------------------|
----------------------------------------------------|

Verses:

No guitar work exept a few slides and some low toned chords.

Chorus:

Part 1:

Play these 2 chords loosly:

------|
----3-|
----2-|
-4--0-|
-4--0-|
-2----|

Part 2:

-------------------|
---------------3---|
---------------2-5-|
-4-----4-----4-0-5-|
-4-----4-----4-0-3-|
-2-0-0-2-0-0-2-----|
====
Tap to rate this tab
# A B C D E F G H I J K L M N O P Q R S T U V W X Y Z