Guitaretab - guitar tabs
Song name
# A B C D E F G H I J K L M N O P Q R S T U V W X Y Z

Bush - Land Of The Living tab

Intro:
e|------------------------------------|
B|------------------------------------|
G|--------18-18-18--------18-18-18----|
D|--5-5--------------5-5--------------|9*
A|--5-5--------------5-5--------------|9*
E|--3-3--------------3-3--------------|7*

*:hit fast
e|------------------------------------|
B|------------------------------------|
G|------------------------------------|
D|--4-4-5-5-7-7---4-4-5-5-7-7---------| the 7 hit about 7 times
A|--4-4-5-5-7-7---4-4-5-5-7-7---------|     7
E|--2-2-3-3-5-5---2-2-3-3-5-5---------|     5
[ Tab from: http://www.guitaretab.com/b/bush/29305.html ]
Verse:
e|------------------------------------|
B|------------------------------------|
G|------------------------------------|
D|--4-4-12-12-7---4-4-12-12-7---------|              7
A|--4-4-12-12-7---4-4-12-12-7---------| here hit the 7 too 7 times
E|--2-2-10-10-5---2-2-10-10-5---------|              5
"I lost myself.."
e|------------------------------------------------------|
B|------------------------------------------------------|
G|------------------------------------------------------|
D|--10-11--13---10-11--13--10--11--13--14--15--17--19---|
A|-8--9--11----8--9--11----8--9--11----12--13--15--17---|
E|------------------------------------------------------|
"I am the vapour..."

Chorus:
e|------------------------------------|
B|------------------------------------|
G|-----9*-----------------------------|
D|--5*-9*-----------------------------|
A|--5*-7*-----------------------------|
E|--3*--------------------------------|

this tab is about 90% sure
the verse number 2 is wrong i think
Related for Land Of The Living tab