Song name
# A B C D E F G H I J K L M N O P Q R S T U V W X Y Z

Bush - The Sound Of Winter tab

#----------------------------------PLEASE NOTE--------------------------------#
#This file is the author's own work and represents their interpretation of the#
#song. You may only use this file for private study, scholarship, or research.#
#-----------------------------------------------------------------------------#
#-- File created with Instab - http://www.pconline.com/~smcarey/instab.html --#
#-----------------------------------------------------------------------------#

Author/Artist: Bush
Title: The Sound of Winter
x scratch note in chord
P.M. palm mute

Standard Tuning

-----|----------------|---------------------------------------|---------------|
-----|----------------|---------------------------------------|---------------|
-----|----------------|-------------------------------4---4---|---------------|
-----|-x------x---2---|-9----9----9----9----5----5----2---2---|---------------|
-----|-7------3---2---|-7----7----7----7----3----3------------|---------------|
-----|-7------3---x---|------10--------10---------------------|---------------|
  Intro Chords P.M.    Pt. 2 Pick all .......................

----|-------------------------------------------------------------|-----------|
----|-------------------------------------------------------------|-----------|
----|-------------------------------------------------------------|-----------|
----|-x---x-------------------------------------------------------|-----------|
----|-7---7-------------------------------------------------------|-----------|
----|-5---5---5-7-5-3--3--3-5-3-0-0-0-0-0-0-0-0-0-0-0-0-0-0-0-0-0-|-----------|
   PreChords G1                   P.M............................

----|-15--14--12----13-----12----|--------------------------------------------|
----|----------------------------|--------------------------------------------|
----|----------------------------|--------------------------------------------|
----|----------------------------|--------------------------------------------|
----|----------------------------|--------------------------------------------|
----|----------------------------|--------------------------------------------|
   PreChorus G2 notes

----|-3---5---7---5---|-------------------------------------------------------|
----|-5---7---8---7---|-------------------------------------------------------|
----|-x---x---x---x---|-------------------------------------------------------|
----|-5---7---9---7---|-------------------------------------------------------|
----|-3---5---7---5---|-------------------------------------------------------|
----|-x---x---x---x---|-------------------------------------------------------|
     Chorus Chords

----|---3----7--5----3---5--7--5--3--------3---7--5--7--5--|------|--------|--|
----|-5---5--------5---5-------------5---5---5-------------|------|--------|--|
----|------------------------------------------------------|------|--------|--|
----|------------------------------------------------------|2-1/2-|--------|--|
----|------------------------------------------------------|------|--------|--|
----|------------------------------------------------------|------|--------|--|
     G2 Chorus Riff                                                  Solo
Tap to rate this tab
 
# A B C D E F G H I J K L M N O P Q R S T U V W X Y Z